Tablatura para Bajo de Pappo: Blues Local
Conexión · Inscripción
Letras y Acordes
Pantalla Completa
Imprimir
Versión Texto
Añadir Favorito
Otras Versiones

Mostrar Diagramas
Desfile Automático
Formato del Texto


Blues Local(BAJ)

Pappo

calidad:
papp0024
AUTOR: Pappo  corregir
ALBUM: World Tour
Enviado por manuel
INTRO
       G
-------------------
-----55--33--------  x4
------------55-----
--33---------------


VERSO
       G                C                G               G
----------------------55--33-------------------------------------
-----55--33------------------55--------55--33----------55--33----
------------55-----33-------------------------55--------------55-
--33--------------------------------33---------------33----------

       C                C                  G            G
-----55--33-----------55--33------------------------------------
-----------------------------55--------55--33---------55--33----
--33--------55-----33-------------------------55-------------55-
------------------------------------33--------------33----------


       D                 C               G               G
-----77--55-----------55--33------------------------------------
-------------77--------------55--------55--33----------55--33---
--55---------------33-------------------------55--------------55
------------------------------------33--------------33----------



ES ASI TODO EL TEMA
ESPERO QUE LES SIRVA

Caride
Este fichero es trabajo propio de su transcriptor y representa su interpretación personal de la canción. El material contenido en esta página es
para exclusivo uso privado, por lo que se prohibe su reproducción o retransmisión, así como su uso para fines comerciales.

© LaCuerda.net · Aviso Legal · Privacidad