Tablatura para Guitarra de Pappo: Blues Local
Conexión · Inscripción
Letras y Acordes
Pantalla Completa
Imprimir
Versión Texto
Añadir Favorito
Otras Versiones

Mostrar Diagramas
Desfile Automático
Manipular Acordes
Formato del Texto


Blues Local(TAB)

Pappo

calidad:
papp0023
AUTOR: Pappo  corregir
ALBUM: World Tour
Enviado por felipe
INTRO.
1--------------|---------------|-------------|--------------|
2--------------|---------------|-------------|--------------|
3----77-55-----|----55-33------|-------------|--------------|
4----------77--|----------55---|----55-33----|----55-33-----|
5-55-----------|-33------------|----------55-|----------55--|
6--------------|---------------|-33----------|-33-----------|

anoche hubo fiesta en el club del blues local

1--------------|---------------|-------------|-------------|
2--------------|---------------|-------------|-------------|
3--------------|----55-33------|-------------|-------------|
4----55-33-----|----------55---|----55-33----|----55-33----|
5----------55--|-33------------|----------55-|----------55-|
6-33-----------|---------------|-33----------|-33----------|

anoche hubo fiesta en el club del blues local

1|---------------|---------------|-------------|-------------|
2|---------------|---------------|-------------|-------------|
3|----55-33------|----55-33------|-------------|-------------|
4|----------55---|----------55---|----55-33----|----55-33----|
5|-33------------|-33------------|----------55-|----------55-|
6|---------------|---------------|-33----------|-33----------|

sentados en una mesa con amigos de verdad

1--------------|---------------|-------------|--------------|
2--------------|---------------|-------------|--------------|
3----77-55-----|----55-33------|-------------|--------------|
4----------77--|----------55---|----55-33----|----55-33-----|
5-55-----------|-33------------|----------55-|----------55--|
6--------------|---------------|-33----------|-33-----------|

...

felipe.concordia.*
Este fichero es trabajo propio de su transcriptor y representa su interpretación personal de la canción. El material contenido en esta página es
para exclusivo uso privado, por lo que se prohibe su reproducción o retransmisión, así como su uso para fines comerciales.

© LaCuerda.net · Aviso Legal · Privacidad