Tablatura para Bajo de Pappo: Auto Rojo
Conexión · Inscripción
Letras y Acordes
Pantalla Completa
Imprimir
Versión Texto
Añadir Favorito
Otras Versiones

Mostrar Diagramas
Desfile Automático
Formato del Texto


Auto Rojo(BAJ)

Pappo

calidad:
papp0882
AUTOR: Norberto Anibal Napolitano
ALBUM: El auto rojo (1999)
Enviado por victor
                  “Tengo un pequeño auto rojo…    …que me lleva a donde
G|---------------------------------------------------------------------
D|---------------------------------------------------------------------
A|------------------------------0--0-0--0-0--0-0--0-0--0-0--0-0--0-0--…
E|-0--0-0--0-0--0-0--0-0--0-0-…----------------------------------------

 …voy,            …Tengo un pequeño auto rojo…    …que me lleva a donde
G|---------------------------------------------------------------------
D|---------------------------------------------------------------------
A|------------------------------0--0-0--0-0--0-0--0-0--0-0--0-0--0-0--…
E|-0--0-0--0-0--0-0--0-0--0-0-…----------------------------------------

 …voy,                …no es un auto muy lujoso,        pero yo comodo
G|-------------------------------------------------------------------
D|-------------------------------------------------------------------
A|-------------------------------------------------------------------
E|-0--0-0--0-0--0-0--0-0--0-0-…-7--7-7--7-7--7-7--7-5--5-5--5-5--5-5-…

 …voy,                  …Hace ruido en una rueda…  …y de chaperio esta
G|---------------------------------------------------------------------
D|---------------------------------------------------------------------
A|------------------------------0--0-0--0-0--0-0--0-0--0-0--0-0--0-0--…
E|-0--0-0--0-0--0-0--0-0--0-0-…----------------------------------------

 …mal,                  …Hace ruido en una rueda…     …y de chapa viene
G|---------------------------------------------------------------------
D|---------------------------------------------------------------------
A|------------------------------0--0-0--0-0--0-0--0-0--0-0--0-0--0-0--…
E|-0--0-0--0-0--0-0--0-0--0-0-…----------------------------------------

…mal,                     …le falta la luz de giro,pero yo en el ando…
G|-------------------------------------------------------------------
D|-------------------------------------------------------------------
A|-------------------------------------------------------------------
E|-0--0-0--0-0--0-0--0-0--0-0-…-7--7-7--7-7--7-7--7-5--5-5--5-5--5-5-…

…igual    …ahora el solo…
G|--------------------------------------------------------------------
D|--------------------------------------------------------------------
A|--------------------------------------------------------------------
E|-0--0-0--0-0--0-0--0-0--0-0-…-3--3-3--3-3--3-3--3-3--3-3--3-3--3-3-…

             …auto rojo…
G|---------------------------------------------------------
D|---------------------------------------------------------
A|----------------2---3--3-3--3-3--3-3--3-3--3-3--3-3--3-3-
E|-3--3-5--3-6--3---3--------------------------------------

   …huuu…
G|------------------------------------------------------------
D|------------------------------------------------------------
A|-3-----------------------------------------5--5-5--5-5--5-5-
E|---3--3-3--3-3--3-3--3-3--3-3--3-3--3-3--3------------------

G|------------------------------------------------------------
D|------------------------------------------------------------
A|-5-3--3-3--3-3--3-3--3--------------------------------------
E|-----------------------3--3-3--3-3--3-3--3-3--3-3--3-3--3-3-

                         …No puedo correr a nadie,porque no anda ni para
G|---------------------------------------------------------------------
D|---------------------------------------------------------------------
A|------------------------------0--0-0--0-0--0-0--0-0--0-0--0-0--0-0--…
E|-0--0-0--0-0--0-0--0-0--0-0-…----------------------------------------

…atrás,                 …Esta flojo de cubiertas,y lo tengo que…
G|---------------------------------------------------------------------
D|---------------------------------------------------------------------
A|------------------------------0--0-0--0-0--0-0--0-0--0-0--0-0--0-0--…
E|-0--0-0--0-0--0-0--0-0--0-0-…----------------------------------------

alinear,         …pero este pequeño auto rojo,yo lo amo de verdad”
G|----------------------------------------------------------
D|----------------------------------------------------------
A|----------------------------------------------------------
E|-0--0-0--0-0--0-0--0-0--0-0-…-7--7-7--7-7--7-7--7-5-------

G|----------------------------------------------------------
D|----------------------------------------------------------
A|----------5-6-7----------------7--------------------------
E|-4--5-6-7--------0----------------------------------------

Mientras su musica se siga tocando y escuchando el carpo jamas morira,
vivira eternamente en la memoria de todos...
Este fichero es trabajo propio de su transcriptor y representa su interpretación personal de la canción. El material contenido en esta página es
para exclusivo uso privado, por lo que se prohibe su reproducción o retransmisión, así como su uso para fines comerciales.

© LaCuerda.net · Aviso Legal · Privacidad