Tablatura para Guitarra de Pappo: Aquel Gato
Conexión · Inscripción
Letras y Acordes
Pantalla Completa
Imprimir
Versión Texto
Añadir Favorito
Otras Versiones

Mostrar Diagramas
Desfile Automático
Manipular Acordes
Formato del Texto


Aquel Gato(TAB)

Pappo

calidad:
papp0624
AUTOR: Pappo
ALBUM: Buscando un amor (2002)
Enviado por Martín
AQUEL GATO

INTRO                   PRIEMERA PARTE/ ESTROFAS

e|-------------|--------------------------------------------------
B|-------------|--------------------------------------------------
G|--2---2------|--4----4---4-4-2---------4----4---4-4-2-----------
D|--2---2-2----|--4----4---4-4-2-2-------4----4---4-4-2------------
A|--0---0-2----|--2--0-2-0-2-2-0-2-------2--0-2-0-2-2-0------------
E|--------0----|-----------------0---------------------------------

Segunda parte/ estribillo

e|------4-----4-4----
B|------3-----3-3----
G|--3/4---3/4--------   x4
D|-------------------
A|-------------------
E|-------------------

Tercera parte

e|-----------------------------------------------------------------------
B|-----------------------------------------------------------------------
G|-----------------------------------------------------------------------
D|------------------------------------------------9-7--------------------
A|----------------------------------------------------9-8-7-5---5-6------
E|--2----2-3-4-5------5-4-3-2-----2-3-4-5------0--------------7----------




Solo:

e|----------------------------------------------------------4-5-6-7~~~~~~
B|--5---5---5---5-----5---5----------5---5---5---5----5------------------
G|--6p7-6p7-6p7-6p7---6p7-6p7r6p7----6b7-6b7-6b7-6b7--6p7----------------
D|-----------------------------------------------------------------------
A|-----------------------------------------------------------------------
E|-----------------------------------------------------------------------

e|-----------------------------------16-----15-----14----------12~~~-----
B|----------------------------------------------------------14--------14-
G|----10r9-7-9-7b----------7-----15/16--16/15--15/14---14/12-------------
D|--9-------------9-7b9-7-9-9~~------------------------------------------
A|-----------------------------------------------------------------------
E|-----------------------------------------------------------------------

e|-14b16r14-12---------12------------------------------------------------
B|-------------15b17~~~----------------------------12/11---11/10---11-9--
G|-----------------------14b16r14-12--14-12------------12------11--------
D|----------------------------------13-----13-11-13----------------------
A|-----------------------------------------------------------------------
E|-----------------------------------------------------------------------

e|-----------------------------------------------------------------------
B|--3b—5b7-----------------------3--3------3~----------------------------
G|----4---4---------------2-4----2--2------2~-------2-4b6-4-2------------
D|----------------0-2-3-4--------0--0------0~----2h4----------4-2--------
A|----------0-2-2--------------------------------------------------------
E|-----------------------------------------------------------------------

e|--------------------------------12-------------------------------14----
B|----------------------------------15b17-14------12-12-12-12-14b16---12~
G|-------------------------------------------11h13-----13----------------
D|------2-4b6-4-2---0---/2---/4------------------------------------------
A|--2h4----------4----2----2----2----------------------------------------
E|-----------------------------------------------------------------------


En el final

e|-----------------------------------------------------------------------
B|-----------------------------------------------------------------------
G|-----------------2--3--4-----------------------------------------------
D|--9-7------------2--3--4-----------------------------------------------
A|-----9-8-7-5-----0--1--2-----------------------------------------------
E|-------------7---------------------------------------------------------
Este fichero es trabajo propio de su transcriptor y representa su interpretación personal de la canción. El material contenido en esta página es
para exclusivo uso privado, por lo que se prohibe su reproducción o retransmisión, así como su uso para fines comerciales.

© LaCuerda.net · Aviso Legal · Privacidad