Tablatura para Bajo de Pappo: Aquel Gato
Conexión · Inscripción
Letras y Acordes
Pantalla Completa
Imprimir
Versión Texto
Añadir Favorito
Otras Versiones

Mostrar Diagramas
Desfile Automático
Formato del Texto


Aquel Gato(BAJ)

Pappo

calidad:
papp0623
AUTOR: Pappo
ALBUM: Buscando un amor (2002)
Enviado por Martín
INTRO            Tema principal, primera parte

G|-------|---------------------------------------------------------------
D|-------|---------------------------------------------------------------
A|-0-0---|2--0-2-0-2-2-0---2-0-2-0-2-2-0--2--0-2-0-2-2-0---2—0-2-0-2-2-0-
E|-----0-|--------------0-------------------------------0----------------


Segunda parte

G|-----------------------------------------------------------------------
D|-----------------------------------------------------------------------
A|---------5-------------5-7-----------5-----------5-7-------------------
E|-0---5-7---7---0---5-7-------0---5-7---7---0-5-7-----------------------

Tercera parte

G|-----------------------------------------------------------------------
D|-----------------------------------------------------------------------
A|-----------------------------------------------------------------------
E|--2-2-222222-2-3-4-5-5-555555-5-4-3-2-2-222222-2-3-4-5-555555-----0----

G|-----------------------------------------------------------------------
D|---9-7-----------------------------------------------------------------
A|-------9-8-7-5-----5---7-----------------------------------------------
E|---------------7-----------(0)-----------------------------------------



En el solo, la primera parte sin bajo, luego:

G|-------------------------
D|-------------------------
A|--2--0-2-2-2---0-2-------       x4
E|-------------2-----------

G|-------------------------
D|-------------------------
A|---7--5-7-7-7---5-7------       x4
E|--------------7----------

G|-----------------------------------------------------------------------
D|-----------------------------------------------------------------------
A|--0----------------2------------------0-----------2--0-2-0-2-2-0-------
E|----------0------------------------------------0----------------0......

Al final:

G|-----------------------------------------------------------------------
D|---9-7-----------------------------------------------------------------
A|-------9-8-7-5---------------------------------------------------------
E|---------------7---5----6-----------7/---------------------------------
Este fichero es trabajo propio de su transcriptor y representa su interpretación personal de la canción. El material contenido en esta página es
para exclusivo uso privado, por lo que se prohibe su reproducción o retransmisión, así como su uso para fines comerciales.

© LaCuerda.net · Aviso Legal · Privacidad