Acordes de Guitarra » P »Papilon de Tarapoto » Que Paso (Tab)

Que Paso
Papilon de Tarapoto

Letras, Acordes y Tabs para Guitarra, Bajo y Ukulele

  • Em
    Te abrazo y ya no trasmites calor
                             Am
    Estas distraída cuando te hablo
    D
    Y me das la espalda en nuestro lecho de amor
                                            Em
    Disimular no sabes disimular
    Am                         D
    Algo me ocultas y lo dejas notar
    G                            C
    Estas sacando alguien de tu corazón
    Am                              B
    Estas perdiendo fuerzas frente a otro amor (bis 2)
    Em
    Coro:
    
    Que paso entre tú y yo
    Em
    Si hasta ayer todo era bonito
    
  •         Em            D           C            B7
    e -----|-----------|------------|------------|-----------------
    B -----|-------5-5/|8---7h8-7-5-|------------|-----------------
    G -2-2/|4----4-----|------------|7---5h7p5-4-|---2-4-2-2-4-2---
    D -----|-----------|------------|------------|7----------------
    A -----|-----------|------------|------------|-----------------
    E -----|-----------|------------|------------|-----------------
    
          Em        D             C              B7
    e ---|---------|------------|--------------|---------
    B ---|-----5-5/|8---7h8-7-5-|--------------|---------
    G -2-|4--4-----|------------|7---5h7p5-4---|---------
    D ---|---------|------------|--------------|--7------
    A ---|---------|------------|--------------|---------
    E ---|---------|------------|--------------|---------
                D Tarapoto peru papilon papilon la del ritmo vacilon
    
                 Em                          D
    e -3-3-3--5-|3--3-3-3--5-3---5-5-5--7-|5---5--3--2--0--
    B -5-5-5--7-|5--5-5-5--7-5---7-7-7--8-|7---7--5--3--0--
    
  • +
    ¡Colabora con nosotros!
    Envíanos tu versión de esta canción

Letra de Que Paso
Te abrazo y ya no trasmites calor
Estas distraída cuando te hablo
Y me das la espalda en nuestro lecho de amor
Disimular no sabes disimular
Algo me ocultas y lo dejas notar
Estas sacando alguien de tu corazón
Estas perdiendo fuerzas frente a otro amor (bis 2)
Que paso entre tú y yo
Si hasta ayer todo era bonito
Que paso entre los dos
Dime quien me roba tu amor
Más de mí que te puedo dar
Si hasta mi vida es tu propiedad
Si acaso fue tu amor mentira
Si así sabes engañas
Si que sabes engañar
Todo fue falsead
Acaba ya con este teatro
Dime que nunca me pudiste amar….

Video de Que Paso
[]




[Que Paso chords][Que Paso cifra]
© LaCuerda.net · aviso legal · privacidad · es · en · pt · contacto