Acordes de Guitarra » P »Papa Topo » En un momento (Tab)

En un momento
Papa Topo

Letras, Acordes y Tabs para Guitarra, Bajo y Ukulele

  • SOL                    RE                       SI               SOL
    E-15---17--15----15--------  -----------------------------------------
    B-------------17----17-15--  ------------15-----------15--------------
    G--------------------------  --15-15--17----15--17-------15-17-15-----
    D--------------------------  -------------------------------------17--
    A--------------------------  -----------------------------------------
    E--------------------------  -----------------------------------------
    
                            SOL
    E--------------------------------
    B--------------------------------
    G-15-----------------------------
    D----17-15----15--17-15-17---17--X2
    A----------16--------------------
    E--------------------------------
    
    
    
    
    G                       D
    
  • +
    ¬°Colabora con nosotros!
    Envíanos tu versión de esta canción

Letra de En un momento
En un momento un salteamen
como a cambiado todo parece que fue ayer
En un momento un salteamen
ahora parezco otro parece yo ya no soy aquel
lo conocí en la estación espacial era un hombre amigable
un astronauta ejemplar
eficaz en su tarea listo y muy puntual no podía presajear lo que iba a pasar
pero ese día.. el radiante de alegría pues creía
que a su casa volvería se embarco sin temor en aquel transbordador
y dijo adiós
En un momento un salteamen
como a cambiado todo parece que fue ayer
En un momento un salteamen
ahora parezco otro parece yo ya no soy aquel
después de días de viajar sin parar
un leve avería hay que salir arreglar
y ahí va nuestro astronauta decidido a encerrar
crusa todas las compuertas sale al campo estelar
de ahí fuera el vació
orion los meteoritos los cometas los planetas
las estrellas la chatarra las galaxias
la mayor de las estrellas al cair
En un momento un salteamen
como a cambiado todo parece que fue ayer
En un momento un salteamen
ahora parezco otro parece yo ya no soy aquel
ante el tama√Īo y magnitud
el astronauta se colapso
una angustia y un temblor
todo pierde su importancia
al corazón derrepente se le para
se retuerce de dolor dentro del traje de la nasa
y si... se noto que colapsaba
y si... va perdiendo la razón
queda atrapado por la órbita del sol
en un eterno rotación y traslación
Nap nabanap nabadaba dabada dabada
dabadaba daba da dabada dabadaba daba da dabada
dabadaba dabada
En un momento un salteamen
como a cambiado todo parece que fue ayer
En un momento un salteamen
ahora parezco otro parece yo ya no soy aquel
ahora paresco otro parece yo ya no soy aquel
ahora paresco otro parece yo ya no soy aquel...




[En un momento chords][En un momento cifra]
© LaCuerda.net · aviso legal · privacidad · es · en · pt · contacto