Acordes de Guitarra » P »Panda » La reina de Uxmal (Tab)

La reina de Uxmal
Panda

Letras, Acordes y Tabs para Guitarra, Bajo y Ukulele

  • C#                            A#m7
    cuéntame porque oh reina de Uxmal
    F#               G#                 C#
    tus ojos verdes ven alguien mas ,
    C#                          A#m7
    creo que es mi culpa tu alejar
    F#           G#               C#
    pues te canso mi inseguridad,
    C#                              A#m7
    me dijeron que el mejor que yo mucho
    F#                G#                       C#
    mejor que todo mi amor
    C#                       A#m7
    una amiga tuya ya me conto
    F#           G#
    que hasta te enseño a jugar domino
    -Coro-
    
    A#m7  G#           F#
    ven te doy la razón y pídeme
    
  •      D
    e|---------------------------------------------------------------
    B|---------------------------------------------------------------
    G|----------2------------2-------------2--------------2----------
    D|------4------4-------4----4--------4----4---------4----4-------
    A|---5-------------5-------------5-------------5-----------------
    E|---------------------------------------------------------------
    
    Verso
       D                                Bm                G        A
    e|---------------------------------------------------------------------
    B|---------------------------------------------------------------------
    G|-----2-------2--------2------2--------0--------0--------2--------2---
    D|---4---4---4---4---4---4---4---4----4---4----4---4----4---4----4---4-
    A|-5-------5-------5-------5--------2--------2-----------------0-------
    E|----------------------------------------------------3----------------
    
         D
    e|------------------------------------------------------
    B|------------------------------------------------------
    
  • D#||--------------------------|--------------------------|
    A#||--------------------------|--------------------------|
    F#||--------2-----------2-----|--------2-----------2-----|
    C#||-----4-----4-----4-----4--|-----4-----4-----4-----4--|
    G#||--5-----------5-----------|--5-----------5-----------|
    D#||--------------------------|--------------------------|
    
    --------------------------|--------------------------|
    --------------------------|--------------------------|
    --------2-----------2-----|--------2-----------2-----|
    -----4-----4-----4-----4--|-----4-----4-----4-----4--|
    --5-----------5-----------|--5-----------5-----------|
    --------------------------|--------------------------|
    
    --------------------------|--------------------------|
    --------------------------|--------------------------|
    --------0-----------0-----|--------------------------|
    -----4-----4-----4-----4--|--------0-----------0-----|
    --2-----------2-----------|-----5-----0-----5-----4--|
    --------------------------|--3-----------5-----------|
    
  • +
    ¡Colabora con nosotros!
    Envíanos tu versión de esta canción

Letra de La reina de Uxmal
cuéntame porque oh reina de Uxmal
tus ojos verdes ven alguien mas ,
creo que es mi culpa tu alejar
pues te canso mi inseguridad,
me dijeron que el mejor que yo mucho
mejor que todo mi amor
una amiga tuya ya me conto
que hasta te enseño a jugar domino
ven te doy la razón y pídeme
un deseo reto a que no, no es mejor
y nadie duda como yo.
-Estribillo-
y cuéntame le dices que lo amas ya?
así como a mí o este es de verdad
cuéntame le diste sus besos ya?
yo aun no olvido el cuarto de atrás
ven y cuéntame hasta diez y pídeme un deseo
yo se que no es mejor no me gana en el temor
la carta que te di, no supe que paso
mi corazón te di y ahora me siente menor
no sufro de rencor mas si del pundonor
regresa por favor.
-Final-
ven te doy la razón
y pídeme un deseo
yo se que no, no es mejor no me gana
en el temor, no es mejor, no es mejor
pídeme un deseo no , no es mejor no es mejor
no te cuida como yo




[La reina de Uxmal chords][La reina de Uxmal cifra]
© LaCuerda.net · aviso legal · privacidad · es · en · pt · contacto