Acordes de Guitarra » P »Panda » Adheridos Separados (Tab)

Adheridos Separados
Panda

Letras, Acordes y Tabs para Guitarra, Bajo y Ukulele

  •  Cmaj
    e----3---
    B----3
    G----0--
    D----2--
    A----3--
    E-------
    
    
    
    Intro
    C  Em - D
    C  Em - D
    Am      C -D
    
    versos
    
    Em      D        Cmaj     Em      D       Cmaj
       Acaso no prometimos   juntos siempre estar
    
    
  • INTRO: D# Gm F D# Gm F Cm A# F
    
    Gm     F       D#    Gm      F      D#
    A kaso no prometimos juntos siempre star
    F    D#           A#           F
    ignoraba k mi avandono te hacia mal
    Gm        F        D#     Gm       F        D#
    si la ignorancia es dicha entonces kiero ser,
    F      D#      A#          F
    kiero ser dichosamente ignorante
    
    
    Gm        F      D#    Gm      F      D#
    pensé k habia madurado estaba ekibocado
    F      D#                   A#     F
    no madure me hice experto en fingir
    Gm      F      D#    Gm    F     D#
    tenia todo planeado lo k iva a decir
    F       D#              A#      F
    nudo en la garganta tenias k surgir
    
  • Bb------4h5h4-----
    Gb-1/444-----666--
    Db----------------
    Ab----------------
    Eb----------------
    
    eb-----------------------7-7--7---7-----11r12r11---
    Bb------4h5h4--------7-7----7---7---------------12-
    Gb---444-----666----9-9-9-9--9-9-9-----------------
    Db-------------------------------------------------
    Ab-------------------------------------------------
    Eb-------------------------------------------------
    
    Acaso no prometimos.... (Puro bajo)
    eb----------------
    Bb----------------
    Gb----------------
    Db----------------  aplausos , xD
    Ab----------------
    Eb----------------
    
  • e-------------------------------------------------
    B-------2222-4-5-4-2------2222-4-5-4-2------------
    G-1/4444---------------444------------------------
    D-------------------------------------------------
    A-------------------------------------------------
    E-------------------------------------------------
    
    e------------------7-7--7---7-----11r12r11--------
    B-55555-7-5-4-----7-7----7---7---------------12---
    G--------666----9-9-9-9--9-9-9--------------------
    D-------------------------------------------------
    A-------------------------------------------------
    E-------------------------------------------------
    
    VERSOS
    
    *aki lo pueden acompañar con los acordes si esq quieren
    
    //SOLO BAJO
    
    
  • que tal otra ves pasando a dejar un rolon de panda para bajo
    espero les ayan gustado los otros dos covers de este disco
    q subi
    "Abigail" y "solo a terceros"(en afinacion normal
    por q se oia
    mas chido)
    pero bueno espero y les guste esta rola saludos:
    
    AFINACION  BeMol
    
    F#
    C#
    G#
    D#
    
    Intro:   OJO es 11 no 1-1 y asi todas las demas....
    
    F#)-------------------------------
    C#)-------------------------------  x2
    G#)------------------18------16---
    D#)12121212121212/16----1414------
    
    F#)----------------------------------------
    C#)----------------------------------------
    G#)-----11111111111111---------444---4-----
    D#)9999----------------0000-22-----2-------
    
    Verso: "Acaso no prometimos..."
    
    F#)-------------------------------
    C#)----11h13----13---13-----------
    G#)-11-------11----11---999-7-777-
    D#)-------------------------------
    
    "Juntos siempre estar...#
    
    F#)----------------------------------------------------------------
    C#)----11h13----13---13------------------------------------11---11-
    G#)-11
  • INTRO:
    G-----------------------------------------|
    D------------12--10-------------12--10----|
    A-66666666-10--88--8-66666666-10--88--8---|
    E-----------------------------------------|
    
    G---------------------------------------|
    D---------------------------------------|
    A---------10-10--10---66666666---33-3---|
    E-88888888-88--88--8-----------11--1----|
    
    VERSO:
    G------------------------------|
    D----10h12--12--12-------------| x2
    A-10~-----10--10---888-6~666---|
    E------------------------------|
    
    G---------------------------------------|
    D------------------------------10--10---|
    A----------666-1~111-6~66-66-88--88-----|
    E-11111111------------------------------|
    
    G------------------------------|
    D----10h12--12--12-------------| x2
    A-10~-----10--10---888-6~666---|
    E------------------------------|
    
    G--------------------------------------|
    D----------------------8--8---10--10---|
    A----------666-1~111-66-66--88--88-----|
    E-11111111-----------------------------|
    
    G---------------------------------
  • +
    ¡Colabora con nosotros!
    Envíanos tu versión de esta canción

Letra de Adheridos Separados
versos
Acaso no prometimos juntos siempre estar
ignoraba que mi abandono te hacia mal
si la ignorancia es dicha
entonces quiero ser
quiero ser dichosamente ignorante
(Se tocan igual los acordes con el mismo tiempo y ritmo)
pense que habia madurado
estaba equivocado
no maduré
me hice experto en fingir
tenía todo planeado lo que iba a decir
nudo en la garganta
tenias que surgir
yo prometo cantar esa melodia que te hace sonreir
tu prefieres oir aquella cancion que ya olvide como va
realmente no estoy tan lejos
ponle atención a este mapa
no importa donde yo vaya
son pocos centímetros
entre tu y yo
estamos adheridos separados
me dices solo son centímetros
acercate acercate
acercate acercate
O bien pueden tocarlo así
(se toca igual que el otro, no hay ningún cambio)
yo prometo cantar esa melodia que te hacia sonreir
tu prefieres oir aquella cancion
la cual no puedo evocar
no, no te rindas jamas
no te rindas jamas
pues que no ves que sin ti no más
no, no puedo evitar
yo sé que estoy mal
admite, sin mi no hay más




[Adheridos Separados chords][Adheridos Separados cifra]
© LaCuerda.net · aviso legal · privacidad · es · en · pt · contacto