Tablatura para Guitarra de los Panchos: No Me Quieras Tanto
Conexión · Inscripción
Letras y Acordes
Pantalla Completa
Imprimir
Versión Texto
Añadir Favorito
Otras Versiones

Mostrar Diagramas
Desfile Automático
Manipular Acordes
Formato del Texto


No Me Quieras Tanto(TAB)

los Panchos

calidad:
pnch0363
AUTOR: Rafael Hernández
ALBUM: 20 Exitos de Oro de los Panchos, Vol. 2
Enviado por Armando
Te dedico esta tablatura a ti mi amor,pues me inspiraste a sacarla,
te amo, y gracias por ser quien eres preciosa!!
¡¡para ti M A R Y S O L, te amo,gracias por estos 4 meses!!                 

Este intro, es en afinacion estandard (en E),no es que esten mal 
hechos los otros,pero no se oyen igual,esta es la version
100% correcta,es requinto,asi ke se toka un poco rapido!.

E]-------------------------------------------------------------------
A]-------------------------------------------------------------------
D]-------------------------------------------------------------------
G]-------------------------------------------------------------------      
B]-11--------------------------------11------------------------------
e]----14--14-14-14--13-14-16-14-13------13--13-13-13--12-13-14-13-11-
                                                                      
E]-----------------------------------
A]-----------------------------------
D]-----------------------------------
G]-----------------------------------
B]--10-9-10-11-9-10-13-12-11h1211-10-
e]-----------------------------------            
                                                 
E]----------------------------------------------
A]----------------------------------------------
D]----------------------------------------------
G]----------------------------------------------
B]-6-7-8-8-9-11-11-9-8-7-9-8-7---10-9-10-11-10--
e]----------------------------------------------
                                                                     
E]------------------------------------------------------------------
A]------------------------------------------------------------------
D]------------------------------------------------------------------
G]------------------------------------------------------------------
B]--------------------------------11--------------------------------
e]-14--14-14-14--13-14-16-14-13------13--13-13-13--12-13-14-13-11---



E]----------------------------------------------------------------]
A]----------------------------------------------------------------]
D]----------------------------------------------------------------]
G]----------------------------------------------------------------]
B]-10-9-10-11-9-10-13-12-11h1211-10---6-7-8-8-9-11-11-9-7-8---(4)-]
e]----------------------------------------------------------------]

Dudas o sugerencias mandenme un mail!!
Este fichero es trabajo propio de su transcriptor y representa su interpretación personal de la canción. El material contenido en esta página es
para exclusivo uso privado, por lo que se prohibe su reproducción o retransmisión, así como su uso para fines comerciales.

© LaCuerda.net · Aviso Legal · Privacidad