Tablatura para Guitarra de los Panchos: Cien mujeres
Conexión · Inscripción
Letras y Acordes
Pantalla Completa
Imprimir
Versión Texto
Añadir Favorito
Otras Versiones

Mostrar Diagramas
Desfile Automático
Manipular Acordes
Formato del Texto


Cien mujeres(TAB)

los Panchos

calidad:
pnch0102
AUTOR: Alfredo Gil
ALBUM: Trios Mas Famosos del Mundo
Enviado por Manuel
E-|------------------------------------------------------------
A-|------------------------------------------------------------
D-|-2-4-------------------------------5-----5-------------3----
G-|-----1-2-------------2-------4---4-----4-----4---2---2------
B-|---------0-1-3-----1-----1-3---3-----3-----3---1---1--------
E-|---------------0-0-----0------------------------------------

E-|------------------------------------------------------------
A-|-----------------------4------------------------------------
D-|-----3-------------2-0---0-2-3------------------------------
G-|---2-----2---1---1-------------0-2--------------------------
B-|-1-----1---0---0-------------------0-1-3---------------3-3--
E-|-----------------------------------------0-1-3-1-1-0-0------


E-|-----------------------------------------------------4------
A-|-----------------------------------------4-4-3-3-2-0---2-0--
D-|---------------------4-4-3-3-2-2-1-1-0-0--------------------
G-|---------2-2-1-1-0-0----------------------------------------
B-|-1-1-0-0----------------------------------------------------
E-|------------------------------------------------------------


                      ### SALUDOS DESDE MERIDA ###
Este fichero es trabajo propio de su transcriptor y representa su interpretación personal de la canción. El material contenido en esta página es
para exclusivo uso privado, por lo que se prohibe su reproducción o retransmisión, así como su uso para fines comerciales.

© LaCuerda.net · Aviso Legal · Privacidad