Acordes de Guitarra » P »Palito Ortega » La sonrisa de mamá (Tab)

La sonrisa de mamá
Palito Ortega

  • Letra y Acordes
    Gm                      D
    Esa flor que esta naciendo
                        Gm
    Ese sol qeu brilla mas
                D
    todo eso se parece
                      Gm
    a la sonrisa de mama
    
    Gm                  D
    Esa rosa qeu depsierta
                Gm
    ese rio qeu se va
                     D
    todo eso se parece
                      Gm
    a la sonrisa de mama
    
    A#
    la dulzura de tus ojos
    
  • Tablatura
    e.-------------------------------------------------
    B.--1-0-------1---0----3-1--0--3-1--0------1-0--------
    G.------2-------2---------------------2---------
    D.---------2--------2--------------------------------
    A.-------------------------------------------------
    E.-------------------------------------------------
    
    
    e.---------------------0------------------------------
    B.------1---0---0--1-3---3--1--0----------------------
    G.--2-----2-----------------------2-------------------
    D.----2-------2---------------------------------------
    A.----------------------------------------------------
    E.----------------------------------------------------
    
    e.----------------------------------------------------
    B.--1-0-------1---0----3-1--0--3-1--0------1-0--------
    G.------2-------2---------------------2---------------
    D.---------2--------2---------------------------------
    A.----------------------------------------------------
    
  • +
    ¡Colabora con nosotros!
    Envíanos tu versión de esta canción

Letra de La sonrisa de mamá
Esa flor que esta naciendo
Ese sol qeu brilla mas
todo eso se parece
a la sonrisa de mama
Esa rosa qeu depsierta
ese rio qeu se va
todo eso se parece
a la sonrisa de mama
la dulzura de tus ojos
tu mirada, tu candor
la sonrisa, la ternura de tu voz
Tu palabra es el ejemplo
es el remanso del amor
ella borra mi tristeza
mi dolor
Me contagio de alegria
caudno tu conmigo estas
porqeu tengo tu cariño
mi sonrisa brilla mas
a tu lado tengo todo
tu eres mi felicidad
tu tristeza es la mia
y tu canto mi cantar
Mirkos58@hotmail.com



© LaCuerda.net · aviso legal · privacidad · contacto
DINAMICO