Acordes de Guitarra » P »Paco Bello » Corazón de corona (Tab)

Corazón de corona
Paco Bello

Letras, Acordes y Tabs para Guitarra, Bajo y Ukulele

  •       C7aum  (x4)
    -------------------3-------------------------------------
    ---------------1-------1---3-^-1-------------------------
    -------------4-------------------------------------------
    ---------------------------------------------------------
    --------3------------------------------------------------
    ---------------------------------------------------------
     C9(x2)            Em7(x2)
    -------0-----------------0---3---------------------------
    -----3----3-1^0--------3---3---3-------------------------
    ---0-----------------0-----------------------------------
    ---------------------------------------------------------
    -3-----------------2-------------------------------------
    ---------------------------------------------------------
    
          Faum7/9
    ----------------3----------------------------------------
    -------------1----1--------------------------------------
    ----------2----------2---------2---0---------------------
    -------3---------------3---2-----------2-^-0-------------
    
  • +
    ¡Colabora con nosotros!
    Envíanos tu versión de esta canción

Letra de Corazón de corona
Faum7/9
Luego las notas se tocan como en la tab,los C*y C9*se
tocaríanlos dos pulsando las cuerdas:V,III;II,I,II,III,II.
1)Una niña orgullosa esperaba en el andén,
Faum7/9
Con sus manos guardadas
En el fondo del abrigo de la fe.
1)Una niña con rosa esperaba sobre la ola
De un eco lleno de besos.
Viento dulce con silbidos de un tren de ayer.
2)Niña con semblante de nido alto
Niña con ojos de pueblo en un lago
Niña el tren ya huele tu rosa
Y tu rosa empieza a crecer.
..
1)Y esa niña orgullosa miraba la vía vacía
Con ojos de arco tensado
Y una flecha siempre a punto de llorar.
3)Y esa niña orgullosa agarrada a su rosa,
Silenciosa llama roja,
El corazón de corona sobre su cabeza
loca.uoououuoouo…
2)Niña con semblante de nido alto
Niña con ojos de pueblo en un lago.
Niña el tren ya huele tu rosa
Y tu rosa empieza...
2)Niña con semblante de nido alto
Niña con ojos de pueblo en un lago.
Niña el tren ya huele tu rosa
Y tu rosa empieza a crecer...
1)Una niña orgullosa esperaba en el andén
Con los ojos cerrados,
Esperando a que se los abriera él.
Para cualquier duda, escribidme: rafaelotis@hotmail.com




[Corazón de corona chords][Corazón de corona cifra]
© LaCuerda.net · aviso legal · privacidad · es · en · pt · contacto
DINAMICO