Acordes de Guitarra » P »Pablo Olivares » Poema de salvación (Tab)

Poema de salvación
Pablo Olivares

  • Letra y Acordes
    C                   G   Am
    Cristo moriste en una cruz,
      F   C     G     C
    resucitaste con poder.
    C             G     Am
    Perdona mis pecados hoy,
       F    C     G    C
    se mi Señor y Salvador.
    
    
    F             G         Am
    Cámbiame y hazme otra vez
       F    C   G     C
    y ayúdame a serte fiel.
    
    F             G         Am
    Cámbiame y hazme otra vez
       F    C   G     C
    y ayúdame a ser… te fiel.
    
    
  • Tablatura
    B:[----------3---1------1-3-3-1-1-3----3-3-1-1-
    G:[-----------------0h2------------------------
    D:[--------------------------------------------
    A:[--------------------------------------------
    E:[--------------------------------------------
    
    
    e:[--3-3-1-0---0-----------------------0----------
    B:[----------3---1------1-3-3-1----1h3----3-3-1-1-
    G:[-----------------0h2---------------------------
    D:[-----------------------------------------------
    A:[-----------------------------------------------
    E:[-----------------------------------------------
    
    
    ESTROFA I:
    C                 G    Am
    Cristo moriste en una cruz
    F            G     C
    Resucitaste con poder
    
  • Tablatura
      C                                                     C
    
    E-------3----3----1---0---------0---0------------------------/
    B------------------------3----3-----2----------2--3---3----1-/
    G----O----0----------------0--------3----0-S2-------2----2---/
    D------------------------------------------------------------/
    A--3---------------------2----------0----------------------3-/
    E------------------------------------------------------------/
    
                          C       Cristo moriste       en una     cruz
    E--------0------------------/---------12-----12---------10----8/
    B---1S3-----3----3-----1----/----------------------------------/
    G--------------0----0---------/-----12-----12---------10--------9/
    D---------------------------/-10------------------9-----------7/
    A----------------------3----/----------------------------------/
    E---------------------------/----------------------------------/
             RESUCITASTE CON       PODER
    E--3-----3----3----3---3-----3------/
    B------1---------0---------3-----1--/
    G----2----------0--------0----------/
    
  • Tablatura
      C           G      A      F           G    C
    E----------------------------------------------------
    A-3-------------2-----------------------------2-----3
    D-----------------------2-------3-----3-------------2
    G---0---0---------0-----2-0/2------------------------
    B---------------3---3---1-----1-3-3-1-1-1h3---3-3-1-1
    e-----3---1-0-0-------0---------------------0--------
    
    
                    17         Estrofa
    
      Cristo moriste en una  cruz, resu ci tas te  con
      C             B       A  F             G      C
    E------------------------------------------------------------
    A----------------------------------------------2-------3-----
    D-10----------10---9-------7---3-------2---------------------
    G----12---12---------10----9-----2---------0-----0-------0---
    B----------------------------------1-----1-----3---3-------1-
    e------12-----12-------10--8---1-----3-3-----3-------0-3----3
    
    
  • +
    ¡Colabora con nosotros!
    Envíanos tu versión de esta canción

Letra de Poema de salvación
Cristo moriste en una cruz,
resucitaste con poder.
Perdona mis pecados hoy,
se mi Señor y Salvador.
Cámbiame y hazme otra vez
y ayúdame a serte fiel.
Cámbiame y hazme otra vez
y ayúdame a ser… te fiel.
Cristo moriste en una cruz,
resucitaste con poder.
Perdona mis pecados hoy,
se mi Señor y Salvador.
Cámbiame y hazme otra vez
y ayúdame a serte fiel.
Cámbiame y hazme otra vez
y ayúdame a ser… te fiel.
Cámbiame y hazme otra vez
y ayúdame a ser… te fiel.(2 Veces)
by Dante Laura Astudillo
Bueno espero que lo toquen bien, cualquier información ecribirme
dantea45@hotmail.com



© LaCuerda.net · aviso legal · privacidad · contacto