Acordes de Guitarra » O »Los Outsaiders » Niña (Tab)

Niña
Los Outsaiders

Letras, Acordes y Tabs para Guitarra, Bajo y Ukulele

  • C#maj7 / Dmaj7
    
    Dmaj7 - Gmaj7(b5) x2
    
    
    Estrofa 1:
    Dmaj7               Gmaj7(b5)
    Pero si ella es una niña
                   Dmaj7
    Yo no puedo meterme
                    Gmaj7(b5)
    Con las muñecas de su cabeza
    
    Dmaj7                 Gmaj7(b5)
    Si hablo fuerte me condenan
                   Dmaj7
    Si la toco me apresan
                 Gmaj7(b5)
    Ella se cree toda una princesa
    
    
  • 1)--9----------------9--
    2)--10---------------10-
    3)--11---------------12-
    
      meterme con las muñecas de su cabeza
    1)--9----------------9--
    2)--10---------------10-
    3)--11---------------12-
    
      Si hablo fuerte me condenan
    1)--9----------------9--
    2)--10---------------10-
    3)--11---------------12-
    
      Si la toco me apresan Ella se cree toda una princesa
    1)--9--------------------9--
    2)--10-------------------10-
    3)--11-------------------12-
    
    Coro:
    
  • BAJO NIÑA - LOS OUTSAIDERS
    
    INTRO
    
    1 |-------------------------------------------|
    2 |-------------------------------------------|
    3 |---5-5-5-5-5-5-5---10-10-10-10-10-10-10----|
    4 |-2-----------------------------------------|
    
    1 |-------------------------------------------|
    2 |-------------------------------------------|
    3 |---5-5-5-5-5-5-5---10-10-10-10-10-10-10----|
    4 |-------------------------------------------|
    
    (I)
          Dmaj7               Gmaj7
    
          Pero si ella es una niña, yo no puedo
    1 |-------------------------------------------|
    2 |-------------------------------------------|
    3 |---5-5-5-5-5-5-5---10-10-10-10-10-10-10----|
    4 |-------------------------------------------|
      Meterme con las muñecas de su cabeza
    1 |-------------------------------------------|
    2 |-------------------------------------------|
    3 |---5-5-5-5-5-5-5---10-10-10-10-10-10-10----|
    4 |-------------------------------------------|
         Si hablo fuerte me condenan, si la toco
    1 |------------------------
  • +
    ¡Colabora con nosotros!
    Envíanos tu versión de esta canción
  • Tutorial
    HD
    Niña (versión acústica con letra y acordes)
    3:31

Letra de Niña
Dmaj7 - Gmaj7(b5) x2
Estrofa 1:
Pero si ella es una niña
Yo no puedo meterme
Gmaj7(b5)
Con las muñecas de su cabeza
Si hablo fuerte me condenan
Si la toco me apresan
Gmaj7(b5)
Ella se cree toda una princesa
Hubiera deseado conocerla en otro momento
Está hecha de fragmentos pero no lo lamento
Estrofa 2:
No estoy enamorado de ella
Es una niña bella
Gmaj7(b5)
Se nos cruza una piedra entre los dos
Desarrolla más rápido
Ella me lo pide
Gmaj7(b5)
Yo sólo soy un cavernícola
Y a mí no me importa, cada cual por su lado
Donde pueda llorar y yo gritar
Los hombres y las mujeres
No piensan del mismo modo
No da más ni yo tampoco
Entonces no digan que yo soy
Ese hombre malagradecido
Uno es como es
Dmaj7 - Gmaj7(b5)
Estrofa 1 de nuevo:
Pero si ella es una niña
Yo no puedo meterme
Con las muñecas de su cabeza
Si hablo fuerte me condenan
Si la toco me apresan
Ella se cree toda una princesa
Pero a mí no me importa, cada cual por su lado
Donde pueda llorar y yo gritar
Los hombres y las mujeres
No piensan del mismo modo
No da más ni yo tampoco
Entonces no digan que yo soy
Ese hombre malagradecido
Uno es como es
Uno más uno es tres

Video de Niña
[]




[Niña chords][Niña cifra]
© LaCuerda.net · aviso legal · privacidad · es · en · pt · contacto