Acordes de Guitarra » O »Osvaldo Rodriguez » La Patria (Tab)

La Patria
Osvaldo Rodriguez

Letras, Acordes y Tabs para Guitarra, Bajo y Ukulele

  • E||-----0-----0--3--2--0-----|--2--3--2--0-----0--------|
    B||--------0--------------3--|--------------3-----0-----|
    G||--------------------------|-----------------------0--|
    D||--------------------------|--------------------------|
    A||--------------------------|--------------------------|
    E||-----0--------------------|-----------------0--------|
    
    -----------0--------------0-----|-----------0--------0------||
    --------------0--------------0--|--------------0-----0------||
    --------------------------------|-----------------0--0------||
    --2p-0h-2-----------------------|---------------------------||
    -----------------2p-0h-2--------|---------------------------||
    --------------------------------|--3p-2p-0------------------||
    
    MIm              RE         MIm
    La patria no era sólo la bandera
        SOL      RE            SOL
    Saludada con respeto en la calle,
             LAm        MIm             LAm
    Ni el desfile de cada año frente al héroe
    
  • +
    ¡Colabora con nosotros!
    Envíanos tu versión de esta canción

Letra de La Patria
La patria no era sólo la bandera
Saludada con respeto en la calle,
Ni el desfile de cada año frente al héroe
Bajo la llovizna del otoño.
La patria no eran sólo las postales
En color y bellezas naturales,
Una muchacha que recoge la uva
O sonríe bajo un cielo en primavera.
La patria no era sólo la figura
De un país alargado al fin del mundo,
Ni siquiera el emblema del escudo
Con sus símbolos antiguos.
La patria era saber que el pan lo hace
En la noche unos trabajadores
Casi todos mapuches que comienzan su faena
A las tres de la mañana.
La patria es el desierto y los obreros,
Los que sacan la riqueza de la tierra.
La patria es estudiar todos los días
Preparando la lucha del futuro.
La patria eres tú misma, compañera,
Levantando el puño en alto y la consigna.
La patria será al fin lo que tenemos
Que hacer con nuestra valentía.




[La Patria chords][La Patria cifra]
© LaCuerda.net · aviso legal · privacidad · es · en · pt · contacto
DINAMICO