Letra y Acordes de Osvaldo Rodriguez: La Patria
Conexión · Inscripción
Letras y Acordes
Pantalla Completa
Imprimir
Versión Texto
Añadir Favorito
Otras Versiones

Mostrar Diagramas
Desfile Automático
Manipular Acordes
Formato del Texto


La Patria

Osvaldo Rodriguez

calidad:
orod0091
AUTOR: Osvaldo Rodríguez
ALBUM: Chants pour la Révolution D'octobre (1977)
Enviado por Pablo
Intro:

E||-----0-----0--3--2--0-----|--2--3--2--0-----0--------|
B||--------0--------------3--|--------------3-----0-----|
G||--------------------------|-----------------------0--|
D||--------------------------|--------------------------|
A||--------------------------|--------------------------|
E||-----0--------------------|-----------------0--------|

-----------0--------------0-----|-----------0--------0------||
--------------0--------------0--|--------------0-----0------||
--------------------------------|-----------------0--0------||
--2p-0h-2-----------------------|---------------------------||
-----------------2p-0h-2--------|---------------------------||
--------------------------------|--3p-2p-0------------------||

MIm RE MIm La patria no era sólo la bandera
SOL RE SOL Saludada con respeto en la calle,
LAm MIm LAm Ni el desfile de cada año frente al héroe
MIm Bajo la llovizna del otoño.
MIm RE MIm La patria no eran sólo las postales
SOL RE SOL En color y bellezas naturales,
LAm MIm LAm MIm Una muchacha que recoge la uva
RE MIm O sonríe bajo un cielo en primavera. La patria no era sólo la figura De un país alargado al fin del mundo, Ni siquiera el emblema del escudo Con sus símbolos antiguos. La patria era saber que el pan lo hace En la noche unos trabajadores Casi todos mapuches que comienzan su faena A las tres de la mañana. La patria es el desierto y los obreros, Los que sacan la riqueza de la tierra. La patria es estudiar todos los días Preparando la lucha del futuro. La patria eres tú misma, compañera, Levantando el puño en alto y la consigna.
LAm MIm LAm La patria será al fin lo que tenemos
MIm Que hacer con nuestra valentía.
Este fichero es trabajo propio de su transcriptor y representa su interpretación personal de la canción. El material contenido en esta página es
para exclusivo uso privado, por lo que se prohibe su reproducción o retransmisión, así como su uso para fines comerciales.

© LaCuerda.net · Aviso Legal · Privacidad