Acordes de Guitarra » O »La Oreja de Van Gogh » Nadie como tú (Tab)

Nadie como tú
La Oreja de Van Gogh

Letras, Acordes y Tabs para Guitarra, Bajo y Ukulele

  •   LA#m   Fm
    E--6----8-------|
    B--6----9-------|
    G--6----10------|
    D--8----10------|
    A--8----8-------|
    E--6----8-------|
    
    INTRO:
    E-----9-8-9---------------9-8-9------8-----------------|
    B-------------------------------------9----------------|
    G--10-------10-8/10----10-------10-8-------------------|
    D------------------------------------------------------|
    A------------------------------------------------------|
    E------------------------------------------------------|
    
    A#m
    Nadie como tu
    
    Para hacerme reír
    
  • Intro: LA.m  MI.m  LA.m  MI.m
    
    LA.m
    Nadie como tú para hacerme reir.
    MI.m
    Nadie como tú sabe tanto de mí.
    LA.m
    Nadie como tú es capaz de compartir
    MI.m
    Mis penas, mi tristeza, mis ganas de vivir.
    
    DO.M
    Tienes ese don de dar tranquilidad
    SOL.M
    De saber escuchar, de envolverme en paz.
    DO.M
    Tienes la virtud de hacerme olvidar
    SOL.M
    El miedo que me da mirar la oscuridad.
    FA.M
    
  •   LAm   MIm
    E--5----7------|
    B--5----8------|
    G--5----9------|
    D--7----9------|
    A--7----7------|
    E--5----7------|
    
    INTRO:
    E------------------------------------------------------|
    B------------------------------------------------------|
    G------------------------------------------------------|
    D-----15-14-15----------------15-14-15-------14--------|
    A--12----------14-12/14----12----------14-12----14-----|
    E------------------------------------------------------|
    
    Am
    Nadie como tu
    
    Para hacerme reír
    
  • +
    ¡Colabora con nosotros!
    Envíanos tu versión de esta canción
  • Tutorial
    Nadie Como Tú - LOVG (Guitar Cover)
    3:26
  • Tutorial
    Nadie como tu Tutorial guitarra
    3:13

Letra de Nadie como tú
Nadie como tu
Para hacerme reír
Nadie como tu
Sabe tanto de mí.
Nadie como tu
Es capaz de compartir
Mis penas mis tristezas
Mis ganas de vivir.
Tienes ese don de dar tranquilidad
De saber escuchar de envolverme en paz.
Tienes la virtud de hacerme olvidar
El miedo que me da mirar la oscuridad.
Solamente tú lo puedes entender
Y solamente tu te lo podrás creer.
En silencio y sin cruzar una palabra
Solamente una mirada es suficiente para dar
1)
Ya son mas de 20 años de momentos congelados
En recuerdos que jamas se olvidaran.
Nadie como tu
Para pedir perdón
Nadie como tu
Valora esta canción.
Nadie como tu
Me da su protección
Me ayuda a caminar
Me aparta del dolor.
Tienes ese don de dar tranquilidad
De saber escuchar de envolverme en paz.
Tienes la virtud de hacerme olvidar
El miedo que me da mirar la oscuridad.
Solamente tú lo puedes entender
Y solamente tu te lo podrás creer.
En silencio y sin cruzar una palabra
Solamente una mirada es suficiente para dar
1)
Ya son mas de 20 años de momentos congelados
En recuerdos que jamas se olvidaran.
Y pasaran, los años y siempre estarás
Buscando un plan, (buscando un plan)
Para que se hagan realidad
Los sueños que, (los sueños que)
Soñábamos anteayer al dormir
Hablando del tiempo que nos quedara por vivir.
En silencio y sin cruzar una palabra
Solamente una mirada es suficiente para dar
1)
Ya son mas de 20 años de momentos congelados
En recuerdos que jamas se olvidaran.
Y sin hablar
Soñando iras
Y quiero llegar a entender que jamas
Nada ni nadie en la vida nos separará.
1) En esta parte pueden usar este arpegio




[Nadie como tú chords][Nadie como tú cifra]
© LaCuerda.net · aviso legal · privacidad · es · en · pt · contacto