Acordes de Guitarra » O »Okills » Después (Tab)

Después
Okills

Letras, Acordes y Tabs para Guitarra, Bajo y Ukulele

  • intro (D + E + F#m)x2
    
    versos
    D           E
    Y luego de esa noche...
    F#m
    ...fuiste mia
    
    
    D           E
    Y luego de ese dia...
    F#m
    ...fuiste noche
    
    pre-coro
    
    D
    E  F#m
    Ay! Que este amor se me vaya de una vez
    
    
  • INTRO
    G------------------------------------------------
    D------------------------------------------------
    A---5--0-55-0---7----77-----9--7-99-7-9--7-99-7--
    E------------------7----7------------------------ X2
    
    
    Y LUEGO DE ESA NOCHE...
    G------------------------------------------------
    D------------------------------------------------
    A-----555----------------------------------------
    E-------------------555-------------------------- x2
    
    
    AY QUE ESTE AMOR SE ME VAYA...
    G------------------------------------------------
    D------------------------------------------------
    A---5--0-55-0---7----77-----9--7-99-7-9--7-99-7--
    E------------------7----7------------------------ X2
    
    
    CORO
    
    PARTE 1
    G------------------------------------------------
    D---------7-7h9-7-6------7-6------7-6------------
    A---5-7-9-----------7-99-----7-99-----7-7--------
    E------------------------------------------------ x2
    
    
    PARTE 2 : Y DESPUÉS Y DESPUÉS Y DESPUÉS ...
    D------------------------------------------------
    G-------
  • INTRO
    D---------------------------------------------
    G---2--00--000--022---022--244-244--244-2442--
    A---------------------------------------------
    E--------------------------------------------- X2
    
    VERSO1 Y LUEGO DE ESE DIA...
    
    
    D------------------------------------
    G-----000-----------222----------------
    A-------------------------------------
    E-------------------------------------- x2
    
    VERSO:
    AY QUE ESTE AMO SE ME VAYA...
    D---------------------------------------------
    G---2--00--000--022---022--244-244--244-2442--
    A---------------------------------------------
    E--------------------------------------------- X2
    
    CORO
    
    PARTE 1
    D-------2--24--2-1------21-----21-----
    G----024-----------2-24---2-24-----2---
    A-------------------------------------
    E-------------------------------------- x2
    
    PARTE 2 : Y DESPUES Y DESPUES Y DESPUES ...
    D------------------------------------
    G----2-00000002222222222----------------
    A-------------------------------------
    E-----------------------2222222222----
    
    INT
  • +
    ¡Colabora con nosotros!
    Envíanos tu versión de esta canción

Letra de Después
versos
Y luego de esa noche...
...fuiste mia
Y luego de ese dia...
...fuiste noche
pre-coro
Ay! Que este amor se me vaya de una vez
No quiero esto otra vez
Llevame hasta el cielo
pero bajame despues
que mejor estoy en suelo
y despues empezamos otra vez
y asi igual un verso, pre-coro y coro
Evito los recuerdos... de ese dia
Dejarlo en tu memoria... no en la mia
Hoy elijo no aferrarme a esto otra vez
Es imposible ya volver
Llevame hasta el cielo
pero bajame despues
que mejor estoy en suelo
y despues empezamos otra vez




[Después chords][Después cifra]
© LaCuerda.net · aviso legal · privacidad · es · en · pt · contacto
DINAMICO