Acordes de Guitarra » O »Obus » Te visitara la muerte (Tab)

Te visitara la muerte
Obus

Letras, Acordes y Tabs para Guitarra, Bajo y Ukulele

  • e-------------------------------------------------------------------------I
    B-------------------------------------------------------------------------I
    G--------------------------5-------7------------------------------------I
    D----7------9--/-/----3-------5---------7--------9------(---7-)----I
    A--5------7---/--/---------------------5-------7----------(5----)---I
    E-----------------------------------------------------------------------I
    
    EN LA ULTIMA VEZ DEL INTRO USA LAS MISMAS ESCALAS
    PERO REEMPLAZA LA ULTIMA DE  9-7  POR LA DEL PARENTESIS
    
    AHORA UNA DIFERENCIA ENTRE   SOL-5   Y   SOL-5-1ERA:
    
           SOL-5                                SOL-5-1ERA
    e----------------                        e------------
    B---------------                         B------------
    G---------------                         G------5------
    D-------5--------                        D---3---------
    A-------5--------                        A------------
    E---3------------                        E------------
    ENTONCES CUANDO VEAS EN ALGUNA DE LAS NOTAS  LA ABREVIACION
    
  • Esta transcripcion esta mejor q la anterior q han mandado
    esta correcta... solo me falto sacar el solo =)
    pero lo demas esta super bien!... disfrutenla ps...
    
    
    1|-----------------------------------------|
    2|-----------------------------------------|
    3|-------P.M-------------------P.M---------|
    4|-7s9---9-9---11-12---7s9---9-9-9-9-9-9---|
    5|-5s7---7-7---9—-10---5s7---7-7-7-7-7-7---|
    6|-----------------------------------------|(X3)
    
    1|-------------------------|
    2|-------------------------|
    3|-------P.M---------------|
    4|-7s9---9-9---11-12---7---|
    5|-5s7---7-7---9—-10---5---|
    6|-------------------------|
    
    El viento con fuerza, gemia, lloraba
    Arrastraba su figura
    Llamo a mi puerta vestida de negro
    En una noche sin luna
    1|----------------------------------------|
    2|----------------------------------------|
    3|---------12-11-11------------11-12-12---|
    4|-7s9-9----x—-x—-x----7s9-9---x---x—-x---|
    5|-5s7-7---10—-9—-9----5s7-7---9—-10-10---|
    6|----------------------------------------|(bas
  • Hola soy el mismo del envio anterior de este tema
    Aqui les mando el solo q me habia faltado sacar...
    A mi parecer no esta del todo correcto pero creo q les va a ayudar
    bastante a complementar la cancion...
    Y si hay alguien q tiene el solo correcto, q lo envie pues...
    ahi se los dejo....
    
    
    -24b-24b-24b-24b-24b-24b---
    ---------------------------
    ---------------------------
    ---------------------------
    ---------------------------
    ---------------------------
    
    ---------------------------------------
    15-17p15p17p15-15p13p15p13-13p12p13p12-
    ---------------------------------------
    ---------------------------------------
    ---------------------------------------
    ---------------------------------------
    
    ----------------------------------------------
    12p10p12p10v-10p8p10p8-12p10p12p10p12p10p12p10
    ----------------------------------------------
    ----------------------------------------------
    ----------------------------------------------
    ----------------------------------------------
    
    -----------------
  • +
    ¡Colabora con nosotros!
    Envíanos tu versión de esta canción

Letra de Te visitara la muerte
EN LA ULTIMA VEZ DEL INTRO USA LAS MISMAS ESCALAS
PERO REEMPLAZA LA ULTIMA DE 9-7 POR LA DEL PARENTESIS
AHORA UNA DIFERENCIA ENTRE SOL-5 Y SOL-5-1ERA:
ENTONCES CUANDO VEAS EN ALGUNA DE LAS NOTAS LA ABREVIACION
DE -1, YA SABES CUAL ES LA DIFERENCIA
VERSO 1
EL VIENTO CON FUERZA GEMÍA Y LLORABA
ARRASTRABA SU FIGURA
LLAMÓ A MI PUERTA VESTIDA DE NEGRO EN
UNA NOCHE SIN LUNA
ERA LA MUERTE,
ELLA ME VISITÓ
Y SIN PALABRAS,
ME CONDENÓ

USAR EL INTRO
TE VISITARÁ LA MUERTE
TE VISITARÁ LA MUERTE
TE VISITARÁ LA MUERTE
VERSO 2
USA LAS MISMAS NOTAS DEL PRIMER VERSO
COMIÓ EN MI MESA,DURMIÓ EN MI CAMA
SE ADUEÑÓ DE MI ALMA
FRÍA COMO EL HIELO MIS LABIOS BESÓ,
SU ASTUCIA ME ENGAÑÓ
ASI MISMO USA LOS ACORDES DEL
PRIMER PRE-CORO
ERA LA MUERTE,
ELLA ME VISITÓ
Y SIN PALABRAS,
ME CONDENÓ
AQUI USA EL INTRO COMPLETO DENUEVO
HASTA EL ULTIMO EN DONDE PONES LA NOTA
INDICADA ABAJO
TE VISITARÁ LA MUERTE
TE VISITARÁ LA MUERTE
TE VISITARÁ LA MUERTE
TE VISITARÁ LA MUERTE
TE VISITARÁ LA MUERTE
TE VISITARÁ LA MUERTE
TE VISITARÁ LA MUERTE
TE VISITARÁ LA..MUERTE GUAYEAH
LO DIVIDI EN TES PARTES ESCUCHA BIEN Y NOTARAS LOS CAMBIOS
PUEDES DARLE ALGUNOS ARREGLOS EXTRA SI DESEA IGUAL ESTA ES LA
BASE Y LA QUE MAS DENOTA EN LA CANCION.
TE VISITARÁ LA MUERTE
TE VISITARÁ LA MUERTE
TE VISITARÁ LA MUERTE
TE VISITARÁ LA MUERTE
VERSO 3
USA LAS MISMAS NOTAS DE LOS 2 VERSOS
ANTERIORES.
MI CUERPO TEMBLABA, MI FRENTE SUDABA,
COMO SI ME TORTURARAN
UN GRITO EN LA NOCHE, LA LUZ SE ENCENDIÓ
PRE-CORO
USA LAS MISMAS NOTAS DEL PRECORO ANTERIOR
TODO FUE UN SUEÑO DE CIENCIA-FICCIÓN
Y POR SI ACASO VIVO COMO DIOS
FINALMENTE TERMINA USANDO EN INTRO.
TE VISITARÁ LA MUERTE
TE VISITARÁ LA MUERTE
TE VISITARÁ LA MUERTE
TE VISITARÁ LA MUERTE
...
FIN.




[Te visitara la muerte chords][Te visitara la muerte cifra]
© LaCuerda.net · aviso legal · privacidad · es · en · pt · contacto