Acordes de Guitarra » N »Noa » La vida es bella (Tab)

La vida es bella
Noa

Letras, Acordes y Tabs para Guitarra, Bajo y Ukulele

  • LA VIDA ESBELLA
    
    Pongo esta versión más facilita para gente que como
    yo está empezando y nosabe todos los
    acordes dela otra versión. Seguramente
    suene mucho mejor, pero esta
    suena bastante bien y es facilísima!
    
    SOL
    Yo (yo)
                  RE7
    al verte sonreir (al verte sonreir)
    
    soy (soy)
                     SOL
    el niño que ayer fui (el niño que ayer fui)
    MIm                   LAm
    Si yo velo por tus sueños
                  MIm           SI7
    el miedo no vendrá y así sabrás
    
  • SOL
    Yo (yo)
                  RE
    Al verte sonreir (al verte sonreir)
    RE7
    Soy (soy)
                     SOL                    SOL RE
    El niño que ayer fui (el niño que ayer fui)
    MIm LAm                   MIm LAm
    Si      yo velo por tus sueños
                  MIm           SI7
    El miedo no vendrá y así sabrás
                       MIm ...   RE
    Lo bello que es vivir.
    
    SOL
    (caen) caen
                         RE
    (Mil lágrimas al mar) mil lágrimas al mar
    RE7
    
  • hola soy nuevo y espero que les guste
    es un poco mas facil de tocar que las otras.
                       2x
    1|-----------------|
    2|-------0-1-0-----|
    3|--0--2-------2-0-|
    4|-----------------|
    5|-----------------|
    6|-----------------|
    yo, al verte sonreir
    soy, el niño que ayer fui
    
    1|------0-1-0--------0-1-0------------------------|
    2|-1--3-------3-1---3------3-1---0---1---1-0------|
    3|----------------2------------3---3---3-----2-1-2|
    4|------------------------------------------------|
    5|------------------------------------------------|
    6|------------------------------------------------|
    si, yo velo por tus sueños, el miedo no vendra
    y asi sabras lo bello que es vivir
    
                       2x
    1|-----------------|
    2|-------0-1-0-----|
    3|--0--2-------2-0-|
    4|-----------------|
    5|-----------------|
    6|-----------------|
    caen, mis lagrimas al mar
    tu, no me veras llorar
    
    1|------0-1-0--------0-1-0------------------------|
    2|-1--3-------3-1---3------3-1---0---1---1-0------|
    3|----------------2---
  • +
    ¡Colabora con nosotros!
    Envíanos tu versión de esta canción

Letra de La vida es bella
Yo (yo)
Al verte sonreir (al verte sonreir)
Soy (soy)
El niño que ayer fui (el niño que ayer fui)
Si yo velo por tus sueños
El miedo no vendrá y así sabrás
Lo bello que es vivir.
(caen) caen
(Mil lágrimas al mar) mil lágrimas al mar
(tú )tú
(No me verás llorar) no me verás llorar
Y es que sólo tu alegría
Amansa mi dolor y así yo sé lo bello que es vivir.
Ra rarara rarara ra rarara rarara
Sí mi corazón siempre estará
Donde esté tu corazón,
Si tú no dejas de luchar.
Y nunca pierdas la ilusión,
Nunca olvides que al final habrá
Un lugar para el amor.
Tú (tú)
No dejes de jugar (no dejes de jugar)
No (no)
No pares de soñar, (nunca pares de soñar)
Que una noche la tristeza
Se irá sin avisar y al fin
Sabrás lo bello que es vivir.
Ra rarara rarara ra rarara rarara
Que una noche la tristeza
Se irá sin avisar y al fin
Sabrás lo bello que es vivir.
Se irá sin avisar y al fin
Sabrás lo bello que es vivir.
Ra rarara rarara ra rarara rarara

Video de La vida es bella
[]




[La vida es bella chords][La vida es bella cifra]
© LaCuerda.net · aviso legal · privacidad · es · en · pt · contacto