Tablatura para Bajo de No Te Va Gustar: Con la misma vara
Conexión · Inscripción
Letras y Acordes
Pantalla Completa
Imprimir
Versión Texto
Añadir Favorito
Otras Versiones

Mostrar Diagramas
Desfile Automático
Formato del Texto


No Te Va Gustar
Con la misma vara(BAJ)
calidad:
ntvg0833
AUTOR: Ntvg
ALBUM: Por lo Menos hoy (2010)
Enviado por jerearaujo
INTRO

G/------------------------------------------------------
D/------------------------------------------------------
A/-77--57-7575------------------------------77--57-75757
E/----7-------7-55--35-535353-88-6/8-878787----7--------
B/-----------------5------------------------------------


ESTROFA

G/------------------------------------------------------
D/------------------------------------------------------
A/-----57-7575------------------------------77--57-75757
E/----7-------7-55--35-535353-88-6/8-878787----7--------
B/-55--------------5------------------------------------


1º ESTRIBILLO

G/----------------------------
D/----------------------------
A/---------------3(x12)-7-9-10
E/-3(x16)-5(x16)--------------
B/----------------------------


2º ESTRIBILLO
    Como sea
G/---------------------------------------
D/---------------------------------------
A/---------------3(x16)---7-5-7-5/10-10--
E/-3(x16)-5(x16)-------------------------
B/---------------------------------------
    No pensamos
G/----------------------------
D/----------------------------
A/---------------3(x12)-7-9-10
E/-3(x16)-5(x16)--------------
B/----------------------------



ME FALTA EL JUEGO QUE HACE EN LA PARTE DE
"Pero por lo menos hoy, volve a empezar"
Este fichero es trabajo propio de su transcriptor y representa su interpretación personal de la canción. El material contenido en esta página es
para exclusivo uso privado, por lo que se prohibe su reproducción o retransmisión, así como su uso para fines comerciales.
© LaCuerda.net · Aviso Legal · Privacidad