Tablatura para Guitarra de No Te Va Gustar: Alba
Conexión · Inscripción
Letras y Acordes
Pantalla Completa
Imprimir
Versión Texto
Añadir Favorito
Otras Versiones

Mostrar Diagramas
Desfile Automático
Manipular Acordes
Formato del Texto


Alba(TAB)

No Te Va Gustar

calidad:
ntvg1104
AUTOR: No te va Gustar
ALBUM: El Tiempo otra vez Avanza (2014)
Enviado por matias
RIFF 1:
6|------3-----------3-------------
5|---------2-----2-----2--0-------
4|------------0-------------------
3|--------------------------------
2|--------------------------------
1|--------------------------------


RIFF 2:
6|------3-------------------------
5|---------0--2--3----------------
4|--------------------------------
3|--------------------------------
2|--------------------------------
1|--------------------------------


RIFF 3:
6|--------------------3-----------
5|-------3---2---0----------------
4|--------------------------------
3|--------------------------------
2|--------------------------------
1|--------------------------------



Intro: RIFF 1 Am C G 6|---------------------------- 5|---------------------------- 4|-----------------10-9------- 3|---------------7------------ 2|-----------8---------------- 1|-------8-7------------------
RIFF 1 Am C G 6|---------------------------- 5|---------------------------- 4|--------------10------------ 3|------------8----8---------- 2|---------8----------10-8---- 1|-------8--------------------
RIFF 1 Am C G RIFF 1 Am Cm G Tengo los ojos cerrados, ya no me quiero ni ver
Em RIFF 2 Am C RIFF 3 G aunque me hablen de al lado, no entiendo.
RIFF 1 Am C G RIFF 1 Am Cm G Tengo el cerebro quemado, no recuerdo qué hice ayer
Em RIFF 2 Am C RIFF 3 G ya no me importa si agrado, lo siento.
RIFF 2 D G Ya me canse de decirles que esto no es vida
RIFF 2 D G hace dos años que espero encontrarme con vos
Em RIFF 2 Am C RIFF 3 G muero con todas mis fuerzas y no puedo.
RIFF 1 Am C G RIFF 1 Am Cm G alguna noche en verano me sacan a respirar
Em RIFF 2 Am C RIFF 3 G busco la estrella más alta y te veo. Repite Intro
Bm Em No es un capricho, no es morbo
Bm Em tienen que saber
Bm Em no quiero ser un estorbo
Am D dejenme ir de una vez.
RIFF 1 Am C G RIFF 1 Am Cm G No me retengan en vano, voy a subirme a ese tren
Em RIFF 2 Am C RIFF 3 G Quiero tomarte la mano, no miento
RIFF 2 D G Ya me canse de decirles que esto no es vida
RIFF 2 D G hace dos años que espero encontrarme con vos
Em RIFF 2 Am C RIFF 3 G muero con todas mis fuerzas y no puedo. Y cierra con intro de nuevo.
Este fichero es trabajo propio de su transcriptor y representa su interpretación personal de la canción. El material contenido en esta página es
para exclusivo uso privado, por lo que se prohibe su reproducción o retransmisión, así como su uso para fines comerciales.

© LaCuerda.net · Aviso Legal · Privacidad