Acordes de Guitarra » N »La Ñonga » Caminando voy (Tab)

Caminando voy
La Ñonga

Letras, Acordes y Tabs para Guitarra, Bajo y Ukulele

  • e|------------------------12-------12----|
    B|----12-------12------14----14-14----14-|
    G|-14----14-14----14---------------------|
    
                         
    e|----14-------14--------16----16-14-12-10-|
    B|-15----15-15----15--17----17-17-15-14-12-|
    G|-----------------------------------------|
    
       A                         C#m
    e|-----------------------------12-------12----12----|
    B|----12-------12----12-----14----14-14----14----14-|
    G|-14----14-14----14----14--------------------------|
    
       D                         E
    e|----14-------14----14--------16--------16-14-12-10-|
    B|-15----15-15----15----15--17----17-17--17-15-14-12-|
    G|---------------------------------------------------|
    
    
    
  • +
    ¡Colabora con nosotros!
    Envíanos tu versión de esta canción

Letra de Caminando voy
Caminando voy y solo estoy
Sin ti, por ti.
Eres primer error en mi corazón
Adios, me voy.
Hoy me alejo de ti me voy de aqui
Sin ti, por ti.
No he podido encontrar en que pude fallarte
A ti, así.
No se cómo pasó ni por qué terminó
No sé, tal vez.
Fue mi inseguridad o fue tu libertad
De ayer, no sé.
Pero aquí estoy así llorando por tí
Por eso es que yo digo
Que mejor me voy de aqui
Me voy de aqui.
Pero te juro y te prometo que ya no regresaré
Ya no vuelvo a molestarte ni siquiera volverte a ver
Sin ti yo seguiré viviendo, por amor no me moriré
Por amor nadie se muere y yo te aseguro que estaré bien

Estaré bien.
Sé que fácil no es quizás me moriré
Tal vez, no sé.
Prefiero eso en verdad a tu infidelidad
De amar, bye bye.
La vida es así y yo debo seguir
Por eso es que yo digo
Que mejor me voy de aqui
Me voy de aqui.
Pero te juro y te prometo que ya no regresaré
Ya no vuelvo a molestarte ni siquiera volverte a ver
Sin ti yo seguiré viviendo, por amor no me moriré
Por amor nadie se muere y yo te aseguro que estaré bien
Estaré bien.
Muy bien.
Muy bien.
Muy bien.

Estaré bien.
Adios

Video de Caminando voy
[]




[Caminando voy chords][Caminando voy cifra]
© LaCuerda.net · aviso legal · privacidad · es · en · pt · contacto