Acordes de Guitarra » N »Nikko Ponce » Como Quisiera (Tab)

Como Quisiera
Nikko Ponce

Letras, Acordes y Tabs para Guitarra, Bajo y Ukulele

  •        D           A            Bm          G
    e|------0----|-------0---|-------2----|------3----|
    B|--3-----3--|--2------2-|--3------3--|--3-----3--|
    G|----2------|----2------|----4-------|----0------|
    D|--0--------|--2--------|--4---------|--0--------|
    A|-----------|-----------|------------|-----------|
    E|-----------|-----------|------------|-----------|
    
    
           D          Em           F#m         Em7         A
    e|-----------|-----------|------2-----|-------4---|----5-----|
    B|-----3-----|-------5---|------2-----|----3------|----5-----|
    G|--2--------|----4------|------2-----|-------4---|------6---|
    D|--------4--|-------5---|------------|-----------|----------|
    A|-----------|-----------|------------|-----------|----------|
    E|-----------|-----------|------------|-----------|----------|
    
    
    la primer estrofa lo hace con arpegio como esta acá arriba
    
    
  • +
    ¡Colabora con nosotros!
    Envíanos tu versión de esta canción

Letra de Como Quisiera
la primer estrofa lo hace con arpegio como esta acá arriba
cada vez que miro tus ojos,siento q el tiempo no pasa para miii,
el saber que aun no te tengo.. no me deja dormir,
no me deja seguir sin ti....!!!
Pre Coro
estoy...!!! como perdido
siento un vacio
imposible de llenar
sintii estoy convencido...
que nada tiene sentido sino
me dejas amar
como quisiera besarte
si tan solo pudiera saber
lo que siente mi corazón
que nunca deja de esperarte
para darte mi amor.... darte mi amor
luego del solo sube de tono a E mayor
como quisiera besarte
si tan solo pudiera saber
lo que siente mi corazón
que nunca deja de esperarte
para darte mi amor.....
darte mi amor

Video de Como Quisiera
[]




[Como Quisiera chords][Como Quisiera cifra]
© LaCuerda.net · aviso legal · privacidad · es · en · pt · contacto