Acordes de Guitarra » N »Nihilismo » Sonriendo sin felicidad (Tab)

Sonriendo sin felicidad
Nihilismo

  • Letra y Acordes
    G G G G G G G D
    
                   G                               G
    e|-----------------------------|-----------------------------|
    B|-----------------------------|-----------------------------|
    G|-----------4-5-4---------4---|-----------4-5-4---------4---|
    D|---5-5-7-----------7-5-------|---5-5-7-----------7-5-------|
    A|-----------------------------|-----------------------------|
    E|-----------------------------|-----------------------------|
    
              G                D              D
    e|---------------------------------------------------|
    B|---------------------------------------------------|
    G|----------4-5-4-5-4-5/7---7-7---------7--------7---|
    D|---5-5-7------------------------8-7-------87-------|
    A|---------------------------------------------------|
    E|---------------------------------------------------|
    
            G
    Sonriendo sin felicidad
    
  • +
    ¡Colabora con nosotros!
    Envíanos tu versión de esta canción

Letra de Sonriendo sin felicidad
Sonriendo sin felicidad
defraudado y triste un dia mas
y mi vida ke pasa y yo aca
siempre sigo parado en el mismo lugar
Sonriendo sin felicidad
mis recuerdos vuelven a sangrar
embriagando a mi soledad
nunca tube, ni tengo nada para dar
nada para dar
nada ke kalme mi dolor
Ya no puedo sonreir
esto no sole para mi
ya no puedo mas seguir
kise adaptarme nunca aprendi
Desilusion, frustracion
soledad, mi traicion
Desilusion, frustracion
soledad, mi traicion
No duele caerse cuando ya estas tan abajo
ni duele el rechaso cuando nunca te aceptaron
un dia mas de vida con tu vida vas matando
yo kise decirlo y a mi nunca me escucharon
lalalalala laralalalalala
laralalalalala laralalalalala
Desilusion, frustracion
soledad, mi traicion
lalalalala laralalalalala
laralalalalala laralalalalala
cualkier duda mandenme un email elloco_77_yo@hotmail.com
Jon.Inadaptado 77.CP



© LaCuerda.net · aviso legal · privacidad · contacto
DINAMICO