Acordes de Guitarra » N »Los Nietos de Sinaloa » Sueños (Tab)

Sueños
Los Nietos de Sinaloa

Letras, Acordes y Tabs para Guitarra, Bajo y Ukulele

  • Intro    A  D  B7  E   (2)    C#m  D  B7  E
    
           A       C#m
    Cada tarde conmigo,
           D                 B7            E
    tu sonrisa cariñosa acercándose hacia mi.
    En tus ojos me veo,
    el cariño que me tienes y el amor, que sientes por mí.
    
    PRE I
            C#m                 D
    En un abrazo feliz siempre eras,
           B7                  E
    la alegría de volvernos a ver.
    
    Y abrazados caminamos,
    y al oído te pregunto me quieres verdad.
    Te detienes y me miras,
    te sonríes y me dices que sin mí no puedes vivir.
    
    
  •    RE           F#m
     cada tarde yo miro,
     SOL                           LA
    tu sonrisa cariñosa acercandose ami,
    RE              F#m
    en tus ojos yo veo,
       SOL                                           LA
    el cariño que me tienes del amor que sientes por mi,
    
            F#m                   SOL
    
    en un abrazo feliz tu me entregas,
    
          MIm                LA
    la alegria de volvernos a ver,
    RE                F#m      SOL
    y abrazados caminamos y al oido te pregunto,
         MIm      LA
    me quieres verdad
    
    
  •             A
    
    e-4-5-7--9--9--9--9--9--9--9--9---12--9---
    B-5-7-9-10-10-10-10-10-10-10-10---14-10---
    G-----------------------------------------
    D-----------------------------------------
    A-----------------------------------------
    E-----------------------------------------
    
    
        D                    Bm           E
    e-5-5-5-5-5-5-5-5--5--12-12-10-10--9--9/11--
    B-7-7-7-7-7-7-7-7--7--14-14-12-12-10-10/12--
    G-------------------------------------------
    D-------------------------------------------
    A-------------------------------------------
    E-------------------------------------------
    
       A
    e----------9--9--9--9--9--9--9--9---12--9---
    
  •             A
     e----------9--9--9--9--9--9--9--9-12-9------
     B---10-12-10-10-10-10-10-10-10-10-----------
     G--9----------------------------------------
     D-------------------------------------------
    
        D                       B7
     e--5-5-5-5-5-5-5-5---9--7--5-5-5-5-5-5-5-5-5-----
     B--7-7-7-7-7-7-7-7--10--9--7-7-7-7-7-7-7-7-7-----
     G------------------------------------------------
     D------------------------------------------------
    
            E
     e---9--9\7-7\5-5/7------
     B--10-10\9-9\7-7/9------      (X2)
     G-----------------------
     D-----------------------
    
                    C#m            D B7         E       E
     e--9-9-9-7-5-5h7--7-7-7-5-4-4h5--5-5-5-4-2-0-------0------|
    
  • +
    ¡Colabora con nosotros!
    Envíanos tu versión de esta canción

Letra de Sueños
cada tarde yo miro,
tu sonrisa cariñosa acercandose ami,
en tus ojos yo veo,
el cariño que me tienes del amor que sientes por mi,
en un abrazo feliz tu me entregas,
la alegria de volvernos a ver,
y abrazados caminamos y al oido te pregunto,
me quieres verdad
te detienes y me miras ,
y te sonries y me dices que sin mi no puedes vivir,
un suspiro, te abrazo a mi pecho,
y alo lejos escucho aquel tic-tac
son sueños los que yo vivi,
en un mundo lleno de ilusiones,
en un tiempo fuera de la realidad
despierto y miro tu foto,
me sorprende una gran verdad,
Ttu estas fuera de mi camino,
pero solo te pido,que me dejes soñar.
ahi kedamos con 'sueños' va por todos los k' me la pidieron
.......ahy esta mi correo si tienen alguna duda ......




[Sueños chords][Sueños cifra]
© LaCuerda.net · aviso legal · privacidad · es · en · pt · contacto