Acordes de Guitarra » N »Los Nietos de Sinaloa » Coqueta (Tab)

Coqueta
Los Nietos de Sinaloa

Letras, Acordes y Tabs para Guitarra, Bajo y Ukulele

  • 4I-4-6-4-6-4-6-8    (F#-G#-F#-G#-F#-G#-A#)
    5I-4-6-4-6-4-6-8
    6I-2-4-2-4-2-4-6
    
    ACORDES 1
     B                            Amaj7
    Encuentras la ocacion para coquetearme
      F#7                               B
    buscas que mi corazon brinque y se exalte
                                     Amaj7
    caminas muy despacio para que te mire
            F#7                       B
    y hasta mi llega el olor de tu perfume
           G#/                     D#m/
    lo que no puedo negar que eres bella de verdad
           Amaj7                     F#7
    pero juegas al amor no quieres a nadie
    
    ACORDES 1
    Te marchas y me dejas pensativo
    
  • C                              F
    Encuentras la ocasion para coquetearme
    G7
    buscas que mi carazon brinque y se exsalte .
    C                                F
    caminas muy despacio para que te mire.
    G7
    Y hasta mi llega el olor de tu perfume,
    
    VERSO 2:
    Am
    no lo que no puedo negar
    Em
    que eres bella de verdad
          F                         G7
    pero juegas al amor no quieres a nadie
    
    = QUE VERSO 1:
    
    Te marchas y me dejas pensativo
    
  • e|----11/12--11-11----11/12-14-11--
    B|-12--------------12--------------
    G|---------------------------------
    D|---------------------------------
    A|---------------------------------
    E|---------------------------------
    
    e|-6-6-6--4-4-4--2-2--0------------
    B|-7-7-7--5-5-5--4-4--2------------ <--(x2)
    G|---------------------------------
    D|---------------------------------
    A|---------------------------------
    E|---------------------------------
    
    e|---------------------------------
    B|---0-2-0---0-2-0-2-4-------------    |Donde comienza
    G|-3-------3-----------4-3*-------- <--|el asterisco se
    D|---------------------------------    |pasea por la escala.
    A|---------------------------------
    E|---------------------------------
    
  • e|----11/12--11-11----11/12-14-11--
    B|-12--------------12--------------
    G|---------------------------------
    D|---------------------------------
    A|---------------------------------
    E|---------------------------------
    
    e|-6-6-6--4-4-4--2-2--0------------
    B|-7-7-7--5-5-5--4-4--2------------ <--(x2)
    G|---------------------------------
    D|---------------------------------
    A|---------------------------------
    E|---------------------------------
    
    e|---------------------------------------------------------------
    B|---0-2-4-2-0---2-0---2-0---------------------------------------
    G|-------------3-----3-------4-3-1-------------------------------
    D|---------------------------------4-2-1-------4-6-4-2-4-2-1-----
    A|---------------------------------------4-2-6---------------4-2-
    E|---------------------------------------------------------------
    
  • +
    ¡Colabora con nosotros!
    Envíanos tu versión de esta canción

Letra de Coqueta
5I-4-6-4-6-4-6-8
6I-2-4-2-4-2-4-6
ACORDES 1
Encuentras la ocacion para coquetearme
buscas que mi corazon brinque y se exalte
caminas muy despacio para que te mire
y hasta mi llega el olor de tu perfume
lo que no puedo negar que eres bella de verdad
pero juegas al amor no quieres a nadie
ACORDES 1
Te marchas y me dejas pensativo
si me amas o solo juegas conmigo
prefiero imaginar que yo soy tu hombre ideal
y que tu me quieres y sueñas conmigo
ACORDES 2
Voy a pensar, voy a buscar, la forma de no mirarte
por que voy a enamorarme y entonces yo perdere
voy a pensar, voy a buscar, una forma mas precisa
que te llegue mas deprisa y me rueges por amor
lo voy a lograr te voy a quitar, esa forma de mirar
Coqueta.
ACORDES1
Sabes que soy un don juan y quieres domarme
quieres acabar conmigo quieres conquistarme
me conoces de verdad sabes que voy a ganar
esta guerra que empezamos sin quererlo
ACORDES2
Voy a luchar voy a lograr que me busques y me cuentes
que en tu vida estoy presente y que ya no puedes mas
voy a luchar voy a lograr la forma de demostrarte
que te quiero hasta la muerte
pero quiero que seas tu quien me empieze a hablar
empieze a contar que el amor puede triunfar
ACORDES2
Voy a pensar voy a buscar una forma mas precisa
que te llegue mas de prisa y me rueges por amor
lo voy a lograr te voy a quitar esa forma de mirar
Coqueta.
FINAL
ACORDES
e-B-G-D-A-E




[Coqueta chords][Coqueta cifra]
© LaCuerda.net · aviso legal · privacidad · es · en · pt · contacto