Acordes de Guitarra » N »Nepal » Señal del metal (Tab)

Señal del metal
Nepal

Letras, Notas, Punteos, Tablaturas y Acordes de Guitarra (Tabs & Chords)

  • Tablatura
    e|----------------------------------------|
    B|----------------------------------------|
    G|----------------------------------------|  x2 (La segunda parte termina asi)
    D|--12/9------7/9------12/9------5/7------|           D|-3-4-|
    A|--10/7------5/7------10/7------3/5------|           A|-1-2-|
    E|-------0000-----0000-----0000------0000-|
    
    
    e|------------------------------------|
    B|------------------------------------|
    G|------------------------------------|
    D|------------------------------5/7---|
    A|-10p7------5p7------10p7------3/5---|
    E|------0000-----0000------0000-------|
    
    
    e|------------------------------------|
    B|------------------------------------|
    G|------------------------------------|
    D|------------------------------3/4---|
    
  • +
    ¡Colabora con nosotros!
    Envíanos tu versión de esta canción

Letra de Señal del metal
h-h-h(Harmonico)
Golpeando sin piedad
contra tu voluntad,
arrepentidos llegaran.
Tu madre lo juró,
aquel error fatal
de sus entrañas, el final.
Tomó sin respirar
esa poción mortal,
su codicia gritaran.
Ninguno preguntó
hoy nada cambiará,
vomitaron su verdad.
Y nuestra realidad
nos cuenta una vez mas
no te dejes engañar.
A|-5555-3333-2222--|
Siempre buscarás
todo el tiempo, todo siempre.
A|-5555-3333-2222--|
Siempre buscarás.
No tendremos que aceptarlo el es el final.
En estos días que
no quieren escuchar,
tu venganza cumplirás.
Inútil de pensar,
ya no nos detendrán,
La señal es del metal.
G|16t13h9--x4|12t9h5--x4|14t11h7--x4|
Base Solo
Golpeando sin piedad
contra tu voluntad,
arrepentidos llegaran.
Inútil de pensar,
ya no nos detendrán,
La señal es del metal.
Siempre buscarás
en la oscuridad.
Siempre buscarás
en la oscuridad.
D|-7-5-4-2-2--|
Señal del Metal.
Aguante El Metal Argento.



© LaCuerda.net · Aviso Legal · Privacidad