Acordes de Guitarra » N »Nelly Furtado » Te Busqué (Tab)

Te Busqué
Nelly Furtado

Letras, Acordes y Tabs para Guitarra, Bajo y Ukulele

  • E--6-------------6-------------6-------------6------------
    B-----3----3--------3----3--------3----3--------3----3---
    G------- 3----3--------3----3--------3----3--------3----3-
    D----------------------------------------------------------
    A----------------------------------------------------------
    E----------------------------------------------------------
    
    E--5----------5-----------3--------------2----------------
    B----3---3-------3---3------1-----1-----------------------
    G------3---3-------3---3-------2-----2-------------------
    D---------------------------------------------------------
    A---------------------------------------------------------
    E----------------------------------------------------------
    
    Te Busque de Nelly Furtado (con Juanes). Album: Loose
    
    Intro (mismos acordes que la parte principal y el estribillo):
    
    Gm - F - Cm - D(7)
    
    
  • +
    ¡Colabora con nosotros!
    Envíanos tu versión de esta canción

Letra de Te Busqué
Te Busque de Nelly Furtado (con Juanes). Album: Loose
Estuve bien, estuve mal
Tuve rabia, tuve paz
Y todo lo que te di, por un tubo se fue
En el cielo me sentí y en el suelo me vi
Una vida así no es posible vivir
Quiero sentirme mejor
Quiero sentirme mejor
Cariño mío sin ti no es mejor
Por eso...
Te busqué debajo de las piedras y no te encontré
En la mañana fría y en la noche te busqué
Hasta enloquecer
Pero tú llegaste a mi vida como una luz
Sanando las heridas de mi corazón
Haciendo me sentir vivo otra vez .......
No quería ni hablar, ni tampoco comer
No quería cantar, no sabía que hacer
Y mis ojos perdí
Pero ahora yo soy el futuro de los dos
Quiero sentirme mejor
Quiero sentirme mejor
Cariño mío sentirnos mejor
Te busqué debajo de las piedras y no te encontré
En la mañana fría y en la noche te busqué
Hasta enloquecer
Pero tú llegaste a mi vida como una luz
Sanando las heridas de mi corazón
Haciendo me sentir vivo otra vez
Hablado:
I look in the mirror, the picture's getting clearer
I wanna be myself, but does the world really need her?
I ache for the earth, I stop going to church
I seek god in the trees, makes me fall on my knees
My depression keeps building Like a cup overfillin'
My heart is so rigid, I keep it in a fridge
It hurts so bad that I can't dry my eyes
Cause they keep on refilling with the tears I cry......
Te busqué debajo de las piedras y no te encontré
En la mañana fría y en la noche te busqué
Hasta enloquecer
Pero tú llegaste a mi vida como una luz
Sanando las heridas de mi corazón
Haciendo me sentir vivo otra vez .......
Te busqué debajo de las piedras y no te encontré
En la mañana fría y en la noche te busqué
Hasta enloquecer
Pero tú llegaste a mi vida como una luz
Sanando las heridas de mi corazón
Haciendo me sentir vivo otra vez .......

Video de Te Busqué
[]




[Te Busqué chords][Te Busqué cifra]
© LaCuerda.net · aviso legal · privacidad · es · en · pt · contacto