Acordes de Guitarra » N »Nek » Quédate (Tab)

Quédate
Nek

Letras, Notas, Punteos, Tablaturas y Acordes de Guitarra (Tabs & Chords)

  • Tablatura
       G    C9    Am7   D9 D
    e---3-----3-----3---3--2h3p2--
    B---3-----3-----3---3--3------
    G---0-----0-----0---2--2------
    D-------------------0--0------
    A-------3-----0---------------
    E--3--------------------------
    
                Riff 1            Riff 1
    Vuelvo a buscarte, vuelvo por ti,
       Riff 1                           Riff 1
    déjame intentar, rescatar lo que perdí.
    
    Si no es bastante, decir que vengo a pedir perdón,
    di que puedo hacer para ocupar, otra vez tu corazón.
    
    PRE 1
    C        D         G                F         C          D
     Mi amor, por ti, he olvidado todo lo que fui, y estoy aquí.
    
    
  • Tablatura
    INTRO:  G   C9  Am7 D x 2
    
           G              C9               Am7                 D           G
    ||-------3-----  ----3-------  -----3--------  -----3------2---  ------3---------------
    ||-------3-----  ----3-------  -----3--------  -----3------3---  ------3---------------
    ||-------------  -------------  --------------  ---2--------2---  -----------------------
    ||-------------  --2---------   --2----------  -----------------  -----------------------
    ||-----2-------  ----3-------  --------------  -----------------  ----2------------------
    ||-------3-----  ------------  --------------  ------------------  ------3---------------
    
    
    
    G              C9   Am7
       Vuelvo a buscarte
    D               G  C9  Am7  D
       vuelvo a por ti
    D         G       C9
       dejame intentar
           Am7    D       G  C9  Am7  D
      rescatar lo que perdi.
    
  • +
    ¡Colabora con nosotros!
    Envíanos tu versión de esta canción

Letra de Quédate
Vuelvo a buscarte
vuelvo a por ti
dejame intentar
rescatar lo que perdi.
(Los mismos acordes para el siguiente verso)
Si no es bastante
decir que vengo a pedir perdon
di que puedo hacer para ocupar
otra vez tu corazon.
Mi amor, por ti
he olvidado todo lo que fui
y estoy aqui
para darte mas
y volverme a atar
a los lazos de tu cuerpo
aunque me aleje
nunca me olvide
del sabor de tu piel
eres mas de los que pude soñar, y si tevas
se que voy a enloquecer
quedate.
***** (La cancion sigue el mismo patron anterior)
Abre los brazos
y que vuelva ar s el reloj
dejate llevar
llename lo besos la soledad
Mi amor, sin ti
cada madrugada es como un sue¤o gris
estoy aqui
para darte m s
y volverme a atar
a los lazos de tu cuerpo
ven y ense¤ame......
...quedateeeeee
quiero darte m s......
Cualquier error que pudiesen encontrar por favor escribirme a edgard@mixmail.com o
a ondasur@ibw.com.ni

Videos de Quédate
[ver más videos]

[ver todas las canciones]


© LaCuerda.net · Aviso Legal · Privacidad