Acordes de Guitarra » N »Natalie Billini » Quién como él (Tab)

Quién como él
Natalie Billini

Letras, Acordes y Tabs para Guitarra, Bajo y Ukulele

  • Intro: // G - Em - C - D //
    
    VERSO
    Em         B7
    Quien como El
    C             G          D/F#    Em
    Nada iguala su gloria y su poder
    Em             B7
    Grande es su amor
    C                   G
    Su majestad me consume
           D/F#       C
    Me cautiva su voz
    
    
    PRE-CORO
                    G                    D     C
    Cielo y tierra canta santo es el señor
              G             D
    Elevo mi alma en adoración
    
  • Intro: // Em - D - C - B //
    
    Em         B7
    Quien como El
    C             G          D/F#    Em
    Nada iguala su gloria y su poder
    Em             B7
    Grande es su amor
    C                   G
    Su majestad me consume
           D/F#       C
    Me cautiva su voz
                    G                    D
    Cielo y tierra canta santo es el señor
    C          G             D
    Elevo mi alma en adoración
    
    Coro
    G                      D
    Su gloria llena el universo
    
  • E---------------------------------------
    B-8--12--10--12--10--12--10--8--10--12--
    G---------------------------------------
    D---------------------------------------
    A---------------------------------------
    E---------------------------------------
    
    
    E---------------------------------------
    B-----12--10--12--10--12--10--8--10--12-
    G-11------------------------------------
    D---------------------------------------
    A---------------------------------------
    E---------------------------------------
    
    
    E---------------------------------------
    B-----12--10--12--10--12--10--8--10--12-
    G--9------------------------------------
    D---------------------------------------
    
  • +
    ¡Colabora con nosotros!
    Envíanos tu versión de esta canción

Letra de Quién como él
Quien como El
Nada iguala su gloria y su poder
Grande es su amor
Su majestad me consume
Me cautiva su voz
Cielo y tierra canta santo es el señor
Elevo mi alma en adoración
Su gloria llena el universo
Y su mirada es como estruendo
Que hace temblar
Su voz es como dulce viento
Por su palabra todo acaba
Y vuelve a empezar
Estrofa
//Quién como Él, Quien como Él (Nada se compara a Ti, Señor)
Quien como Él, Quien como Él//
Está en el tono originial de la canción. alguna sugerencia a
roderickmartinez789 (arroba) aol (punto) com (es para evitar spam)

Video de Quién como él
[]




[Quién como él chords][Quién como él cifra]
© LaCuerda.net · aviso legal · privacidad · es · en · pt · contacto