Acordes de Guitarra » N »Natalia Lafourcade » Mirame, mirate (Tab)

Mirame, mirate
Natalia Lafourcade

Letras, Notas, Punteos, Tablaturas y Acordes de Guitarra (Tabs & Chords)

  • Letra y Acordes
    D                                Bm
    LA DISTANCIA, NOS LLEVA A OTROS RUMBOS
              D
    CAMINOS DISTINTOS
                Bm               
    QUE NO TIENEN VUELTA HACIA ATRAS
    
    D
    EL TIEMPO
               Bm
    MI ALIADO ENEMIGO
                  D
    QUE CAMBIA EL DESTINO
                Bm         
    CONGELA LAS GANAS DE AMAR
    
    G                   A
    SE HAN QUEDADO EN LA LUNA
                     D
    LOS TIERNOS ABRAZOS
    
  • Letra y Acordes
    E|-0-------------|
    B|-3----3---3--3-|
    G|-2--2---2--2---|
    D|-0-------------|  x 4 
    A|---------------|
    E|---------------|
    
    
    Asus                               Em
    LA DISTANCIA, NOS LLEVA A OTROS RUMBOS
              A
    CAMINOS DISTINTOS
                Em               A
    QUE NO TIENEN VUELTA HACIA ATRAS
    
    EL TIEMPO
    MI ALIADO ENEMIGO
    QUE CAMBIA EL DESTINO
    CONGELA LAS GANAS DE AMAR
    
    
  • Letra y Acordes
       D/F#   »»» 200230
       G/D    »»» 32003X
       Fa#m   »»» 244222
       Bm     »»» 224432
       Em     »»» 022000
       A7     »»» 002020
       G      »»» 355433
       A      »»» 577655
       Eb/G   »»» 311341
       G#     »»» 466544
       Fam    »»» 133111
       Bb7    »»» 113131
    
    
    E --------------------------------------------------------------
    B ---3----3---3-----3----3---3-----3----3---3-----3----3---3----
    G ---2--2---2---2---2--2---2---2---2--2---2---2---2--2---2---2--
    D ---0----------------------------------------------------------
    A ------------------2-------------------------------------------
    E ---------------------------------2--------------3-------------
    
  • +
    ¡Colabora con nosotros!
    Envíanos tu versión de esta canción

Letra de Mirame, mirate
LA DISTANCIA, NOS LLEVA A OTROS RUMBOS
CAMINOS DISTINTOS
QUE NO TIENEN VUELTA HACIA ATRAS
EL TIEMPO
MI ALIADO ENEMIGO
QUE CAMBIA EL DESTINO
CONGELA LAS GANAS DE AMAR
SE HAN QUEDADO EN LA LUNA
LOS TIERNOS ABRAZOS
SE HA LLEVADO LA NOCHE
LO QUE FUIMOS UNA VEZ, TU Y YO
MIRAME, MIRATE
COMO HEMOS CAMBIADO
MIRAME, MIRATE
AHORA NADA ES IGUAL
MIRAME, MIRATE
QUE NO TE SIENTO A MI LADO
MIRAME, MIRATE
NO PODEMOS VOLVER HACIA ATRAS
NO TIENE SENTIDO
SI NO HAY UN MOTIVO
UN BESO PARA RESPIRAR



© LaCuerda.net · Aviso Legal · Privacidad
DINAMICO