Acordes de Guitarra » N »Nanpa Básico » Flaca (Tab)

Flaca
Nanpa Básico

Letras, Acordes y Tabs para Guitarra, Bajo y Ukulele

  •   Gm
    B|-------11--|-13-11-13----13---------------------|
    G|-----12----|-11-10-11-13-11-11-11Hm13-11--------|
    D|---12------|----------12----12------------------|
    A|-10--------|------------------------------------|
    G|-----------|------------------------------------|
    
      Gm
    B|-------11--|-13-11-13----13---------------------|
    G|-----12----|-11-10-11-13-11-11-10Hm11-11--------|
    D|---12------|----------12----12------------------|
    A|-10--------|------------------------------------|
    G|-----------|------------------------------------|
    
    intro:Gm-F-Cm x2
    
    Gm                  F
    Esa carita wao, ese cuerpo demasiao'
    
    Cm
    
  • +
    ¡Colabora con nosotros!
    Envíanos tu versión de esta canción

Letra de Flaca
Esa carita wao, ese cuerpo demasiao'
y si estás cerquita yo no me controlo
Eres lo que había esperao' flaca vente pa' este lao'
aho y escapémonos solos
Esa carita wao, ese cuerpo demasiao'
y si estás cerquita yo no me controlo
Eres lo que había esperao' flaca vente pa' este lao'
aho y escapémonos solos
Porque tu tienes mi medida precisa,
hay esos ojitos y esa hermosa sonrisa
Quizás al principio estabas indecisa
pero llega el flaco Y te late deprisa
y no lo niegues,
que tu te vuelves loca
Cuando estoy cerquita y te beso la boca,
mami no lo niegues
Que se que te provoca
arañarme el cuello mientras mis manos te tocan
Hay mamacita mía, no importa nada deja la luz prendida
Y yo si que sabia que volverías,
ah recargarte con mis energías
y amor mío es que tus besos son
un vicio inocente y no quiero dejarlos
Regalarme tus días fue tu decisión y
yo te prometo que voy a cuidarlos
No lo niegues, que tu te vuelves loca
Cuando estoy cerquita y te beso la boca
Mami no lo niegues, que se que te provoca
Arañarme el cuello mientras mis manos te tocan
Esa carita wao, ese cuerpo demasiao'
Y si estás cerquita yo no me controlo
Eres lo que había esperao' flaca vente
Pa' este lao' aho y escapémonos solos
Esa carita wao, ese cuerpo demasiao'
Y si estás cerquita yo no me controlo
Eres lo que había esperao' flaca vente pa' este lao'
Aho y escapémonos solos y escapémonos solos
Ven y escapémonos solos, ven y escapémonos solos,
ven escapémonos
Hay mamacita mía, no importa nada deja la luz prendida
Y yo si que sabia que volverías, ah recargarte con mis
Energías y amor mío es que tus besos son un vicio inocente
Y no quiero dejarlos, regalarme tus días fue tu decisión
Y yo te prometo que voy a cuidarlos
*Juan Ayala*




[Flaca chords][Flaca cifra]
© LaCuerda.net · aviso legal · privacidad · es · en · pt · contacto