Acordes de Guitarra » N »Nano Stern » Carnavalito del ciempiés (Tab)

Carnavalito del ciempiés
Nano Stern

Letras, Acordes y Tabs para Guitarra, Bajo y Ukulele

  •         C   Em        Am            |
    Carnavalito del Ciempiés            |
              F       G          C      |
    Mueve las patitas siempre de diez   |
              Em             F     F*   |  x2
    Baila que baila, sin un traspié     |
             Am       G        C        |
    Baila al derecho, baila al revés    |
    
               [VERSO]
    
        Am      Em     Am   F
    Esa botita de charol
          C         Em       Am
    Que hizo su amigo al caracol
          Am      Em      Am     F
    En el hojal lleva un jazmín
               C    G  Am
    Que se lo dio el puerco-espín
    
    
  •         C    E(7)     Am             |
    Carnavalito del Ciempiés             |
              F       G          C       |
    Mueve las patitas siempre de diez    |
                     Em           F      |  x2
    Baila que baila, sin un traspié      |
    Em         Dm(7)   G           C     |
    Baila al derecho, baila al revés     |
    
               [VERSO]
    
          Am   E      Am
    Esa botita de charol
    F             C      E    Am
    Que hizo su amigo el caracol
           Am     Em        Am
    En el ojal lleva un jazmín
    F          C      G        Am
    Que se lo dio el puerco-espín
    
    
  • e--5--3-----5--3-----------------------------------------------|
    B--------5--------5--3--5--3--------5--------------4--5--4--5--|
    G-----------------------------5--2--------2-----2--------------|
    D--------------------------------------2-----5-----------------|
    A--------------------------------------------------------------|
    E--------------------------------------------------------------|
    
    e--------------3--5--------8--7-----7--5-----5-----------3-----|
    B--3--5--3--5--------5--5-----------------------8-----5--------|
    G--------------------------------7--------5--------4-----------|
    D--------------------------------------------------------------|
    A--------------------------------------------------------------|
    E--------------------------------------------------------------|
    
    
    e--5--3--------------------|
    B--------5--3--------------|
    G--------------5--4--2-----|  Am x2
    D--------------------------|
    A--------------------------|
    
  • e---------------------------------------------------------------     |
    B--13-118-13-118---6-8-6----8----------------------------11-13     |
    G--------------------------8-5---5-4-5-8/-9-8-9-10/-12-10-12----     |
    D---------------------------------------------------------------     |
    A---------------------------------------------------------------     |
    E---------------------------------------------------------------     |
                                                                |
                                                                |   x4
                                                 Am x3          |
    e----3-3--11-10--3-10-8--3-8-6--3----3---6-8-3----------3            |
    B-13-----------------------------6-------------6-4-3---4            |
    G-------------------------------------------------------5            |
    D-------------------------------------------------------5            |
    A-------------------------------------------------------3            |
    E--------------------------------------------------------            |
    
    
    Coro:
    
           C    Em      Am                      |
    
  • +
    ¡Colabora con nosotros!
    Envíanos tu versión de esta canción

Letra de Carnavalito del ciempiés
Carnavalito del Ciempiés |
Mueve las patitas siempre de diez |
Baila que baila, sin un traspié |
Baila al derecho, baila al revés |
[VERSO]
Esa botita de charol
Que hizo su amigo al caracol
En el hojal lleva un jazmín
Que se lo dio el puerco-espín
Erererererérererere
LaralaláLarálalalalalalala
Carnavalito del Ciempiés |
Mueve las patitas siempre de diez |
Baila que baila, sin un traspié |
Baila al derecho, baila al revés |
[VERSO]
Ese ponchito de algodón
Que hizo su amigo al moscardón
Grande le queda el pantalón
Se lo ha prestado el león
Erererererérererere
LaralaláLarálalalalalalala
[BREAKDOWN]
Primera Voz Segunda Voz
Caminando va el cienmpiés | |
Moviendo las patitas siempre | Caminando va el ciempiés |
Juntitas de a diez | Moviendo las patitas al compás |
Va caminando y va bailando va | De música va bailando |
Al derecho y al revés | Al derecho y al revés |
Tercera Voz
Carnavalito del Ciempiés
Mueve las patitas siempre de diez
Baila que baila, sin un traspié
Baila al derecho, baila al revés
[VERSO]
Su chaquetita de París
Se la ha traído la perdiz
Esa corbata que encargó
Al ruiseñor se le perdió
Erererererérererere | x2
LaralaláLarálalalalalalala |
[FIN]
Caminando va el ciempiés




[Carnavalito del ciempiés chords][Carnavalito del ciempiés cifra]
© LaCuerda.net · aviso legal · privacidad · es · en · pt · contacto