Acordes de Guitarra » N »Nacho Vegas » Lo que comen las brujas (Tab)

Lo que comen las brujas
Nacho Vegas

Letras, Acordes y Tabs para Guitarra, Bajo y Ukulele

  • Intro: C G Dm G (x2)
    
    C                       G
    ¿Quieres saber dónde estoy?
    Dm                 G
    Tan sólo mira detrás
    C                  G
    de la cortina y verás
       Dm                G
    que ese podría ser yo.
    
    C                     G
    Ese que está justo allí
             Dm       F           G
    con un viejo disfraz de esqueleto
                     C                   G
    y se queda muy quieto y te dice que sí,
               Dm              G           Am
    que está muerto y que ha vuelto a por ti,
           C         G
    
  • Intro: C G Dm G (x2)
    
    C                       G
    ¿Quieres saber dónde estoy?
    Dm                 G
    Tan sólo mira detrás
    C                  G
    de la cortina y verás
       Dm                G
    que ese podría ser yo.
    
    C                     G
    Ese que está justo allí
             Dm                    G
    con un viejo disfraz de esqueleto
                     C                   G
    y se queda muy quieto y te dice que sí,
               Dm               G           Am
    que está muerto y que ha vuelto a por ti,
           C         G
    
  •         C           G              Dm
    e--------3------------3----------0p1-----1-0-----0-----------
    B--1-------1------------3---3--3-----3-------3---------------
    G----0-------0--0---0-----0---2--------2---------------------
    D------2----------0---------0--------------------------------
    A--3-----3---------------------------------------------------
    E---------------3--------------------------------------------
    
            C           G              Dm
    e--------3------------3----------0p1-----1-0---1-0-----------
    B--1-------1------------3---3--3-----3-------3-----3---------
    G----0-------0--0---0-----0---2--------2---------------------
    D------2----------0---------0--------------------------------
    A--3-----3---------------------------------------------------
    E---------------3--------------------------------------------
    
            C           G              Dm
    e--------3------------3----------0p1-------------------------
    B--1-------1------------3---3--3-----3-----------------------
    G----0-------0--0---0-----0---2--------2---------------------
    
  •         C                                G
    
    e ------------------3----------  ----------3--------
    B -----------------------------  ----------------0--
    G --0--------0-------------0 --  -0-----0--------0--
    D -------2--------------2------  -----0----------0--
    A --3---------------3----------  -------------------
    E -----------------------------  -3--------3--------
    
                G                     Dm
    
    e ------------0h1-------- ----1--0----------0-------
    B ---3-----3------------- -----------3--------------
    G ---2---2----------2---- -0------------------------
    D ---0--------0---------- ----------------------0---
    A ----------------------- -------------------2------
    E ----------------------- ----------------3---------
    
    
             C                                         G
    
  • +
    ¡Colabora con nosotros!
    Envíanos tu versión de esta canción

Letra de Lo que comen las brujas
¿Quieres saber dónde estoy?
Tan sólo mira detrás
de la cortina y verás
que ese podría ser yo.
Ese que está justo allí
con un viejo disfraz de esqueleto
y se queda muy quieto y te dice que sí,
que está muerto y que ha vuelto a por ti,
a por ti, a por ti,
a por tu alma, a por tu corazón.
Y tú le dices que no, que aún no te respondió
cuántas cosas secretas te caben en una canción.
La niña pregunta: Mamá,
¿qué es lo que comen las brujas?
Ella le responderá, seria pero con dulzura,
leche, galletas y a ti,
leche, galletas y a ti corazón mío,
a ti, a ti, anoche vi
que una hambrienta se aproxima aquí,
creo que viene a por ti,
que lo que comen son
leche, galletas y a ti corazón.
Y si pretendes vivir
en paz contigo en el cielo,
antes tendrás que pasar
una temporada en el infierno.
Amor mío, si lo que quieres es vivir
en paz contigo en el cielo,
antes tendrás que pasar
una temporada por aquí junto a mí.
Dedicada a Ale, que sin duda come leche y galletas..




[Lo que comen las brujas chords][Lo que comen las brujas cifra]
© LaCuerda.net · aviso legal · privacidad · es · en · pt · contacto