Acordes de Guitarra » M »Música Religiosa » Alma misionera (Tab)

Alma misionera
Música Religiosa

Letras, Notas, Punteos, Tablaturas y Acordes de Guitarra (Tabs & Chords)

  • Letra y Acordes
    SOL    RE             MIm    DO
    señor, toma mi vida nueva antes de
        SOL   RE              SOL      RE
    la espera, desgaste años en mi.
    SOL    RE             MIm    DO
    estoy dispuesto a lo que quieras no
                  SOL  RE        SOL      RE
    importa lo que sea tu llamame a servir
    
    ESTR:
    SOL
    LLEVAME DONDE LOS
       RE         MIm
    HOMBRES NECESITEN TUS
         DO            SOL       RE
    PALABRAS, NECESITEN MIS
                  SOL  RE
    GANAS DE VIVIR
    
                SOL
    
  • Letra y Acordes
     SOL                MIm
    Señor, toma mi vida nueva antes de
        SOL                     RE
    la espera, desgaste años en mi.
      SOL                     MIm
    estoy dispuesto a lo que quieras no
                  SOL      RE          SOL
    importa lo que sea tu llámame a servir
    
    
    CORO:
    
    SOL
    LLEVAME DONDE LOS
    RE          MIm
    HOMBRES NECESITEN TUS
                  SOL
    PALABRAS, NECESITEN MIS
                RE
    GANAS DE VIVIR
    
  • Tablatura
    E-----0-2-2-3-2-0-0---2-0---------------------/
    B---3---------------------3-0-3-0-3-0---------/
    G---------------------------------------------/
    D---0-----------------------------------------/
    A---------------------------------------------/
    E---------------------------------------------/
    
    E---0-2------0-2-0---0---------0h2h3-----------/
    B-3-----3--3-------3--------0h2h3--------------/
    G--------------------------2-------------------/
    D----------------------------------------------/
    A----------------------------------------------/
    E----------------------------------------------/
    
    E-----0-2-2-3-2-0-0---2-0---------------------/
    B---3---------------------3-0-3-0-3-0---------/
    G---------------------------------------------/
    D---0-----------------------------------------/
    A---------------------------------------------/
    E---------------------------------------------/
    
  • +
    ¡Colabora con nosotros!
    Envíanos tu versión de esta canción

Letra de Alma misionera
señor, toma mi vida nueva antes de
la espera, desgaste años en mi.
estoy dispuesto a lo que quieras no
importa lo que sea tu llamame a servir
ESTR:
LLEVAME DONDE LOS
HOMBRES NECESITEN TUS
PALABRAS, NECESITEN MIS
GANAS DE VIVIR
DONDE FALTE
LA ESPERANZA DONDE TODO
SEA TRISTE SIMPLEMENTE
POR NO SABER DE TI
Verso 2: (las mismas notas y ritmo que el verso 1)
te doy mi corazon sincero para gritar
sin miedo tu grandeza señor.
Tendré, tus manos sin cansancio tu historia entre
mis labios y fuerza en la oración.
ESTR



© LaCuerda.net · Aviso Legal · Privacidad