Tablatura para Guitarra de Música Religiosa: Alma misionera
Conexión · Inscripción
Letras y Acordes
Pantalla Completa
Imprimir
Versión Texto
Añadir Favorito
Otras Versiones

Mostrar Diagramas
Desfile Automático
Manipular Acordes
Formato del Texto


Música Religiosa
Alma misionera(TAB)
calidad:
mrel1942
AUTOR: Música Religiosa  corregir
ALBUM: desconocido
Enviado por nacho
este intro lo hicimos para una misa esta chido 
la guitarra 1 lleva capo en el quinto traste.

el rekinto de la guitarra 1 es mas facil si lo 
hacen kon figura de re, y la guitarra dos acompaña
el requinto con arpegios, los acordes son los del coro.
En la letra los acordes de la GUITARRA 1 vienen entre 
paréntesis y los de la guitarra 2 sin nada. AL hacer
la figura del acorde en la guitarra 1 se vuelve el 
acorde de la dos. si entienden vedad?

intro:
GUITARRA 1
E-----0-2-2-3-2-0-0---2-0---------------------/
B---3---------------------3-0-3-0-3-0---------/
G---------------------------------------------/
D---0-----------------------------------------/
A---------------------------------------------/
E---------------------------------------------/

E---0-2------0-2-0---0---------0h2h3-----------/
B-3-----3--3-------3--------0h2h3--------------/
G--------------------------2-------------------/
D----------------------------------------------/
A----------------------------------------------/
E----------------------------------------------/

E-----0-2-2-3-2-0-0---2-0---------------------/
B---3---------------------3-0-3-0-3-0---------/
G---------------------------------------------/
D---0-----------------------------------------/
A---------------------------------------------/
E---------------------------------------------/

E---0-2------0-2-0-----------------------------/
B-3-----3--3-------3-3-------------------------/
G----------------------------------------------/
D----------------------------------------------/
A----------------------------------------------/
E----------------------------------------------/




GUITARRA 1= (D), (G), etc.
GUITARRA 2= G, C, etc.

G C
(D) (G) señor toma mi vida nueva
G
(D) antes de ke la espera
D
(A) desgaste años en mi
G C
(D) (G) Estoy dispuesto a lo que quieras
G
(D) no importa lo que sea
D
(A) tu llámame a servir CORO:
G D
(D) (A) LLÉVAME DONDE LOS HOMBRES
Em C
(Bm) (G) NECESITEN TUS PALABRAS
G D
(D) (A) NECESITEN, MIS GANAS DE VIVIR
G D
(D) (A) DONDE FALTE LA ESPERANZA
Em C
(Bm) (G) DONDE FALTE LA ALEGRIA
G D7 G
(D) (A7) (D) SIMPLEMENTE POR NO SABER DE TI Te doy mi corazon sincero para gritar sin miedo tu grandeza señor Tendre mis manos sin cansancio tu historia entre mis labios y fuerza en la oracion CORO Y asi en marcha iré cantando por calles predicando lo bello que es tu amor señor tengo alma misionera conduceme a la tierra que tenga sed de dios CORO CORO (a capela) CORO INTRO FINAL GUTARRA 2 E--5-0-2-0------5----------------------------/ B----------2----5------5---5/8---------------/ G------------2--5----6---6--------------------/ D---------------------------------------------/ A---------------------------------------------/ E---------------------------------------------/ MUCHAS GRACIAS ESPERO LES HALLA GUSTADO
Este fichero es trabajo propio de su transcriptor y representa su interpretación personal de la canción. El material contenido en esta página es
para exclusivo uso privado, por lo que se prohibe su reproducción o retransmisión, así como su uso para fines comerciales.
© LaCuerda.net · Aviso Legal · Privacidad