Acordes de Guitarra » M »Música de Películas » Stand by me (Tab)

Stand by me
Música de Películas

Letras, Acordes y Tabs para Guitarra, Bajo y Ukulele

  • e|---------------------------------------------------------------||
    B|---------------------------------------------------------------||
    G|---------------------------------------------------------------||
    D|---------------------------------------------------------------||
    A|--5-5-0-4-5-5--5-4-2-2-0-2-2--2-0-------2-0-0--0-4-5-5--0-4-5-5||
    E|---------------------------------3-3--3------------------------||
    
    y stos son los acordes
    
    
    VERSE ONE
    G
    When the night has come
     Em
    ....And the land is dark
             C            D               G
    And the  moon is the only light we'll see
    
    VERSE TWO
    G
    
  • e|---------------------------------------------------------------||
    B|---------------------------------------------------------------||
    G|---------------------------------------------------------------||
    D|---------------------------------------------------------------||
    A|--------------------------------5-5-5-4-7-7-7------------------||
    E|-5-5-0-4-5-5--5-4-2-2-0-2-2-2-0--------------------------------||
    
    A
    When the night has come
     F#m
    And the land is dark
             D            E               A
    And the  moon is the only light we'll see
    
    A
    No, I won't be afraid,
    F#m
    No, I won't be afraid
             D            E               A
    Just as long, as you stand , stand by me.
    
  • +
    ¡Colabora con nosotros!
    Envíanos tu versión de esta canción

Letra de Stand by me
When the night has come
And the land is dark
And the moon is the only light we'll see
No, I won't be afraid,
No, I won't be afraid
Just as long, as you stand , stand by me.
So,darling, darling,stand by me,
Oh! stand,by me
Oh, stand now....stand by me...stand by me
If the sky that we look upon
Should tumble and fall
And the mountains should crumble to the sea,
I won't cry, I won't cry,
No, I won't shed a tear
Just as long,as you stand stand by me.
And, darling, darling, .stand by me,
Oh! stand, by me
Oh, stand now ,stand by me, stand by me
And, darling, darling, ..stand by me,
Oh! stand,by me
Oh, stand now, stand by me, stand by me
When ever your in trouble won?t you ,stand by me
Oh, Stand,by me
oh stand , stand by me stand by me fade




[Stand by me chords][Stand by me cifra]
© LaCuerda.net · aviso legal · privacidad · es · en · pt · contacto