Acordes de Guitarra » M »Música de Películas » Harry Potter (Tab)

Harry Potter
Música de Películas

Letras, Acordes y Tabs para Guitarra, Bajo y Ukulele

  •   E-------0--3p2--0----7--5--------2---------
      B----0---------------------0-------4-------
      G-------------------------0--------4-------
      D------------------------------------------
      A--------------------------------2---------
      e-------0-------0-------0------------------
    
    
    
      E-------0--3p2--0--------------------------
      B----0------------------4---6---0----------
      G--------------------------0-----0---------
      D---------------------------------2--------
      A-----------------------6------------------
      e-------0-------0------------------0-------
    
    
    
      E----0--3p2--0---7--10--9--8---------------
      B--0-----------------8------6--------------
    
  • Harry Potter Theme
    Compositor: John Williams
    
    E|----0-3-2-0-7-5-2--0--3-2-1--|
    B|---0--------------0------3-0-|
    G|-----------------------------|
    D|-----------------------------|
    A|-----------------------------|
    E|-----------------------------|
    
    E|----0-3-2-0-7-10-9-8--5-8-7-6--3-0-|
    B|---0--------------------------0----|
    G|-----------------------------------|
    D|-----------------------------------|
    A|-----------------------------------|
    E|-----------------------------------|
  •     E-------------7----------------------------
        B-------8-7-----10---7--------8-7---6------
        G-----9-----9---------------9-----7--------
        D---9---------------------------------9----
        A------------------------------------------
        E------------------------------------------
    
    
        E-------------7-10--9-8---8--7-6-----------
        B-------8-7-------------9--------7--8------
        G-----9-----9-------------------------9----
        D---9--------------------------------------
        A------------------------------------------
        E------------------------------------------
    
    
        E-----7---7---8--7-6--------7-6------7----
        B---8---8---8----------7-8----------------
        G-----------------------------------------
        D-------------------------------8--9------
    
  • HARRY POTTER MELODY
    
    
    
    mi la  do si la
    mi re si la
    do si sol# la# mi
    
    mi la do si la
    mi sol fa# fa
    do# mi do la re#
    do la
    
    
    do mi
    do mi
    do fa mi re# re# mi do la re#
    do la
    
    do mi
    do mi
    do sol fa# fa
    do# mi do la re#
    do la
    
    
    Ps aqui dejandoles esta cancion esta bien sencilla pero suena bien
    y saludos para xabier iradi que hay que deja muy buenas canciones de mago;
    y tambien para mis hermanas de hearrymania
    veruskas, luna, hermiaby y a mi mama Lily.
  • +
    ¡Colabora con nosotros!
    Envíanos tu versión de esta canción






[Harry Potter chords][Harry Potter cifra]
© LaCuerda.net · aviso legal · privacidad · es · en · pt · contacto