Acordes de Guitarra » M »Música Adventista » Alzaré mis ojos (Tab)

Alzaré mis ojos
Música Adventista

  • Tablatura
        Em     Am       Dm     Am       Dm     Am
    e |-3---3-3---------|---0-1-3-0-------|-----------------|-------
    b |---------1---1---|-3-----------3-1-|-3---3---1---1-1-|-------
    g |-----------------|-----------------|-----------------|-------
    D |-----------------|-0---------------|-0---------------|-------
    A |---------0-------|---------0-------|---------0-------|-------
    E |-0---------------|-----------------|-----------------|-------
    
        E7     Am       Dm     Am       Dm     Am
    e |-----------------|-----------------|---0-1-3-0---3-1-|-------
    b |-0---0-1---------|-3---3-3-1---1---|-3---------------|-------
    g |---2-----2-------|-----------------|-----------------|-------
    D |-----------------|-0---------------|-0---------------|-------
    A |---------0---2-3-|---------0-------|---------0-------|-------
    E |-0---------------|-----------------|-----------------|-------
    
        Dm     Am       E7     Am
    e |-----------------|---------0-------|-----------------|-------
    b |-3---3---1---1-1-|-0---0-1-1-------|-----------------|-------
    g |-----------------|---2-----2-------|-----------------|-------
    
  • +
    ¡Colabora con nosotros!
    Envíanos tu versión de esta canción

Letra de Alzaré mis ojos
Alzaré mis ojos a los montes,
de donde vendrá mi socorro
mi socorro viene de Jehová
que hizo los cielos y la tierra
No dará tu pie al resbaladero
ni se dormirá el que te guarda
he aquí no se adormecerá
ni dormirá el que guarda a Israel
he aquí no se adormecerá
ni dormirá el que guarda a Israel



© LaCuerda.net · aviso legal · privacidad · contacto