Acordes de Guitarra » M »Mox » Polvo en el viento (Tab)

Polvo en el viento
Mox

Letras, Acordes y Tabs para Guitarra, Bajo y Ukulele

  • DO   SOL     LAm
    cierro mis ojos,
    SOL           REm           LAm
    tan solo un momento y el momento fue
    DO SOL   LAm
    y mis sueños,
    SOL           REm        LAm
    pasan por mis ojos de curiosidad.
    
    coro:
    SOL          LAm
    polvo en el viento,
    SOL        REm          LAm
    solo somos polvo en el viento.
    
    DO   SOL     LAm
    la vieja canción,
    SOL           REm       LAm
    una gota de agua en el océano
    DO SOL   LAm
    
  • SI pero LA siguente nota son de la quinta de Do  :)
    
    Intro:                                  R
          |--------------------------------|I   (Llamemos a ese acorde
          |--------------------------------|T    Si+ para agregarlo
          |--------------------------------|M    mas abajo y k se entienda
          |-10*--------7*--------10*-------|I    y los * significa tocar
          |-10*--10-10-7*---7-10-10*-------|C    varias veces)
          |--8*---8--7-5*---5--7--8*-------|O
    
    DO   SI      LA
    cierro mis ojos,
    SOL           FA           LA
    tan solo un momento y el momento fue
    DO   SI      LA
    y  mis  sueños,
    SOL           FA           LA
    pasan por mis ojos de curiosidad.
    
    
    
  •   C               Cmaj7           Cadd3
    |-------------|-------------|----------------
    |-1-----1-----|-0-----0-----|-3-----3--------
    |-----0-------|-----0-------|-----0----------
    |---2---------|---2---------|---2------------
    |-3-----------|-3-----------|-3--------------
    |-------------|-------------|----------------
    
    
      C               Asus2           Asus4
    |-------------|------------|-----------------
    |-1-----1-----|-0-----0----|-3-----3---------
    |-----0-------|-----2------|-----2-----------
    |---2---------|---2--------|---2-------------
    |-3-----------|-0----------|-0---------------
    |-------------|------------|-----------------
    
    
      Am              Asus2           Cadd3
    |-------------|-------------|----------------
    
  • Aqui va el solo de este genial cover:
    
    E|-----------------------------------------------------------------
    B|-5-3-1-0-1-3---------------------------------5-3-1-0-1-3---------
    G|-------------5-4-2-4-5-4-2-4-5-4-2-4-2-0-2-0---------------------
    D|------------------------------------------------------------------
    A|------------------------------------------------------------------
    E|------------------------------------------------------------------
    
    E|-------------------------------1-3-3-5-3-1-3-1-0-1-0-----------------------
    B|---------------------------3-5-----------------------3-5-3-1-3-1-------
    G|-5-4-2-4-5-4-2-4-5-4-2-4-5--------------------------------------2-
    D|------------------------------------------------------------------
    A|------------------------------------------------------------------
    E|------------------------------------------------------------------
    
    |------------------0-1-3-5-3-3-5-3-1-3-1-0-1-0---------------------
    |----------1-3-5-1-----------------
  • --------------------7-8-10--------------------7-8-7----
    ---------------8-10--------------------7-8-10-------10-
    -9-7---------7-----------------------------------------
    -----10-9-10---------------10-9-7-9-10-----------------
    -------------------------------------------------------
    -------------------------------------------------------
    
    
    -7-8-7-----------------
    -------10-8-10-8-------
    -----------------9-7-9-
    -----------------------
    -----------------------
    -----------------------
    
    --------------------7-8-10--------------------7-8-7----
    ---------------8-10--------------------7-8-10-------10-
    -7-----------7-----------------------------------------
    -----10-9-10---------------10-9-7-9-10-----------------
    -------------------------------------------------------
    -------------------------------------------------------
    
    
    -7-8-7----7-8-10-12-14-15---17-15----17----------------
    -------10-------------------------18----18-17-18-17-15-
    ------------------------------------------
  • +
    ¡Colabora con nosotros!
    Envíanos tu versión de esta canción

Letra de Polvo en el viento
cierro mis ojos,
tan solo un momento y el momento fue
y mis sueños,
pasan por mis ojos de curiosidad.
polvo en el viento,
la vieja canción,
una gota de agua en el océano
y nosotros,
que al caer al suelo no queremos ver.
polvo en el viento,
No te afirmes,
nada es para siempre salvo el cielo
duerme lejos,
no puedes comprar el tiempo con dinero.
polvo en el viento,




[Polvo en el viento chords][Polvo en el viento cifra]
© LaCuerda.net · aviso legal · privacidad · es · en · pt · contacto