Acordes de Guitarra » M »Los Morunos » Motivos (Tab)

Motivos
Los Morunos

Letras, Acordes y Tabs para Guitarra, Bajo y Ukulele

  • C   G7
    
    (A)
           C                                             G7
    Yo solo quise quererte,yo solo quise quererte, yo nada te 
    pude dar, uyo nada pude ofrecerte.
    
             C                                           G7
    Solo queria tu vida,para vivirla contigo,quisiera darte 
    mi vida que la tuvieras conmigo. 
    
    
    
    CORO:
                      F                      C                       G7
    Quise motivar tu vida,quise motivar tu vientre,quise motivarte toda, 
    quise motivarte siempre.
    
    Quise con nuestros motivos, motivar un tiempo nuevo,y que 
    motivo a motivo a motivo, naciese un motivo nuestro.
    
  • Estaba revisando la cancion y me di cuenta que necesitaban 
    el punteo,bueno ahí les va...
    
    e |-12--12--------------------------13-|
    B |---13---------------13-13-13-12-----|
    G |-------14-13-12---12-----------12---|
    D |------------------------------------|
    A |------------------------------------|
    E |------------------------------------|
    
    
    e |-13--13--------------------------12-|
    B |---14---------------13-13-13-12-----|
    G |-------14-13-12---12-----------12---|
    D |------------------------------------|
    A |------------------------------------|
    E |------------------------------------|
    
    Esta es una forma pero, si quieres que suene igualititito 
    toca esta...
    
    e |-12--12--------------------------13-|
    B |---13--10-9-8--8////13-13-13-12-----|
    G |-------------------------------14---|
    D |------------------------------------|
    A |------------------------------------|
    E |------------------------------------|
    
    e |-13--13--------------------------12-|
    B |---14--10-9-8--8////
  • +
    ¡Colabora con nosotros!
    Envíanos tu versión de esta canción

Letra de Motivos
Yo solo quise quererte,yo solo quise quererte, yo nada te
pude dar, uyo nada pude ofrecerte.
mi vida que la tuvieras conmigo.
Quise motivar tu vida,quise motivar tu vientre,quise motivarte toda,
quise motivarte siempre.
Quise con nuestros motivos, motivar un tiempo nuevo,y que
motivo a motivo a motivo, naciese un motivo nuestro.
PUNTEO
Yo solo.....
Tururu-rururu, rurururururu-ruuuuuuuuuu!!!!, tururu-rururu!!!,
tururururu-ruruuuu!!!
Un saludo pa´toda la promo XXV del San Francisco de
Borja(San panchito),pa´ todos los muchachos,pa´pauperrimo y
pa´ nuestro grupo 'PEOR ES NADA'
'EL POLECEYA' thetrance@hotmail.com

Video de Motivos
[]




[Motivos chords][Motivos cifra]
© LaCuerda.net · aviso legal · privacidad · es · en · pt · contacto