Acordes de Guitarra » M »Molotov » Voto Latino (Tab)

Voto Latino
Molotov

Letras, Acordes y Tabs para Guitarra, Bajo y Ukulele

  • e|-----------------|---------|-----------------|-----------|
    B|-----------------|---------|-----------------|-----------|
    G|-----------------|----3----|-----------------|-5-5-5-3---|
    D|--------5--------|-5-----5-|--------5--------|---------5-|
    A|-----5-----5---3-|---------|-----5-----5---3-|-----------|
    E|-33--------------|---------|-33--------------|-----------|
    
    Verso 1:
    
    e|--3--3--6--3-------|------------------|-3--3--6--3-----6-6-|
    B|--3--3--3--3--5----|------------------|-3--3--3--3--5--6-6-|
    G|o-3--3--3--3--5----|------------------|-3--3--3--3--5------|
    D|o-------------3----|------------------|-------------3------|
    A|--------------3----|------------------|-------------3------|
    E|-------------------|------------------|--------------------|
    
    e|--3--3--6--3-------|------------------|-3--3--6--3-----6-6-|
    B|--3--3--3--3--5----|------------------|-3--3--3--3--5--6-6-|
    G|o-3--3--3--3--5----|------------------|-3--3--3--3--5------|
    D|o-------------3----|------------------|-------------3------|
    
  • E   |------------------|-----------------|--------------------|
    B   |------------------|-----------------|--------------------|
    G3  |-X----------------|----3----X-------|----------5-5-5-3---|
    D / |--X----0--5--0----|-5-----5--X----0-|-5--0-------------5-|
    A  4|---X------------3-|-----------X-----|-------3------------|
    E   |----3-------------|------------3----|--------------------|
    
    VERSOS:
    - U start to run yeah that figures...
    |-----------------|--3--3--6--3-------|-3--3--6--3-----6-6--|
    |-----------------|--3--3--3--3--5----|-3--3--3--3--5--6-6--|
    |-----------------|o-3--3--3--3--5----|-3--3--3--3--5--7-7-o|
    |-----------------|o-------------5----|-------------5--8-8-o|
    |-----------------|--------------3----|-------------3-------|
    |-----------------|-------------------|---------------------|
    
                        H      H P
       |-----------------------------|
       |-----------------------------|
    4  |o---------------------------o|
    
  • ---------------------------------------------------------------
    ---------------------------------------------------------------
    -----------------------5-3---------------------------5-5-5-----
    ----------5--3------3-------5---------------5--3---------------
    --------5------3-3-----------------------5--------3------------
    --3-3--------------------------------3-3-----------------------
    
    durante la primera parte del verso es:
    
    ---3--3-------6------3-----1---------3-3-----6-----3---1----6-6---
    ---3--3-------6------3-----1---------3-3-----6-----3---1----6-6---
    ------------------------------------------------------------------
    ---------------------------------------------------------------
    ---------------------------------------------------------------
    ---------------------------------------------------------------
    
    en la segunda parte del verso no lo saque, pero improvisa dentro de 
    estas notas siguiendo el ritmo, se debe oir bien si lo haces bien.
    
    -----------------
    
  • e|--------------------------------------|
    B|--------------------------------------|
    G|--x----------------------------3------|
    D|----x------x----5----x-------5----5---|
    A|------x----x--5---5--x--3L------------|
    E|--------3--x---------x----------------|
    
    e|-------------------------------------------------|
    B|-------------------------------------------------|
    G|--x--------------------------5-5-5--3------------|
    D|----x------x----5----x-----------------3h4h5-----|
    A|------x----x--5---5--x--3L-----------------------|
    E|--------3--x---------x---------------------------|
    
    "You start to run..."
    
    e|-------------------------|------|
    B|------8-8-11-8-----------|------|
    G|------7-7--7-7--x--5-----|------|
    D|----------------x--5-----|------|
    
  • Esta es la mayoria de la cancion
    
    Verso
    G|------------------------||
    D|------5--------10-------||
    A|--------5-3-------10----||
    E|-3--3--------8-------10-||
    
    Antes de ir al coro
    G|-----------------||
    D|---5-------------||
    A|-----5-3-3-------||
    E|-3----------0-2-||
    
    Coro
    G|------------------|-------------||
    D|---5--------------|---5---------||
    A|-----5-3----------|-----5---3---||
    E|-3-------5-0--1-2-|-3---------5-||
  • +
    ¡Colabora con nosotros!
    Envíanos tu versión de esta canción

Letra de Voto Latino
durante la primera parte del verso es:
en la segunda parte del verso no lo saque, pero improvisa dentro de
estas notas siguiendo el ritmo, se debe oir bien si lo haces bien.
el coro es:
voto latino.....entre las masas
voto latino.....para la igualdad de raza
para empezar el requinto es asi:
y como dije en el segundo coro, improvisale en eas notas o en esas
pisadas mas o menos siguiendo la cancion, luego se vuelve a hacer este
riff y al ultimo se hace al revez antes del ultimo coro. el final es
basicamente:
bueno espero que les funcione......




[Voto Latino chords][Voto Latino cifra]
© LaCuerda.net · aviso legal · privacidad · es · en · pt · contacto