Acordes de Guitarra » M »Mole » El fino hilo de la obsesión (Tab)

El fino hilo de la obsesión
Mole

Letras, Acordes y Tabs para Guitarra, Bajo y Ukulele

  • Intro: G - Em - C - D (x2)
    
    G           Em
     Te digo adiós
    
                C               D
    Guardo mi tiempo inmenso en el bolsillo.
    
    G            Em            C
     Gritando al sol con la sonrisa gris
    
        D
    del ex presidio.
    
    F#m                G             A          E
       Hoy llevo a mi chica lejos de este vendaval.
    
    F#m          G                     A         E
       Donde tus dedos negros no nos puedan alcanzar...
    E
    
  • Espero les guste
    gracias facu
    Agreguen efectos
    
    Intro:
    e|--------------------------------------------------------------------|
    b|--------------------------------------------------------------------|
    a|--------------------------------------------------------------------| x2
    d|--5-7-9-----------9-9-10-9-7-5-7-4-2-0------------------------------|
    a|---------9-7--------------------------------------------------------|
    e|--------------------------------------------------------------------|
    
    Repetir Intro
    
    Solo x2
    e|--------------------------------------------------------------------|
    b|--------------------------------------------------------------------|
    a|--------4-4-7-9-9-12-11-7-------------------------------------------|
    d|--5-5-7-------------------------------------------------------------|
    a|--------------------------------------------------------------------|
    e|--------------------------------------------------------------------|
    
    e|---------------------------------------------------
  • +
    ¡Colabora con nosotros!
    Envíanos tu versión de esta canción

Letra de El fino hilo de la obsesión
Te digo adiós
Guardo mi tiempo inmenso en el bolsillo.
Gritando al sol con la sonrisa gris
del ex presidio.
Hoy llevo a mi chica lejos de este vendaval.
Donde tus dedos negros no nos puedan alcanzar...
jamás.
Ellos están tirando el fino hilo
de la obsesión.
Ellos están juntando al fin ladrillo por ladrillo.
Hoy llevo a mi chica lejos de este vendaval.
Donde tus dedos negros no nos puedan alcanzar...
jamás.
Nos vamos lejos, no preguntes a dónde...
Nos vamos lejos, no preguntes a dónde...
Me voy . . . Me voy ¿a dónde?.
Me voy . . . Me voy ¿a dónde?.
Gracias a Sir Pol Di pierro, sin él no hubiera podido.




[El fino hilo de la obsesión chords][El fino hilo de la obsesión cifra]
© LaCuerda.net · aviso legal · privacidad · es · en · pt · contacto
DINAMICO