Acordes de Guitarra » M »Mole » El Bote (Tab)

El Bote
Mole

Letras, Acordes y Tabs para Guitarra, Bajo y Ukulele

  • e|---------------------------------------------|
    b|---------------------------------------------|
    a|-----6-7---X8--------------------------------|
    d|-----------------------6-7---X8--------------|
    a|---------------------------------------------|
    e|---------------------------------------------|
    
    Riff:
    
    Hoy vine a confesar.
    Decirte la verdad entre tanta ficción.
    Lo hicimos sin pensar que podía fallar.
    Lo que pasó, pasó.
    
    (1):
                     D                      F#m
    Y el bote se volcó en nuestro océano gris.
                       C           G
    No hay nada que decir, solo nadar.
                D                   F#m                 C
    
  • e|---------------------------------------------|
    b|---------------------------------------------|
    a|-----6-7---X8--------------------------------|
    d|-----------------------6-7---X8--------------|
    a|---------------------------------------------|
    e|---------------------------------------------|
    
    Riff:
    
    Hoy vine a confesar.
    Decirte la verdad entre tanta ficción.
    Lo hicimos sin pensar que podía fallar.
    Lo que pasó, pasó.
    
    (1):
                     D                      Bm
    Y el bote se volcó en nuestro océano gris.
                       G           D
    No hay nada que decir, solo nadar.
                D                   Bm                 G
    
  • 1 parte
    G|------------------------------|
    D|------------------------------|
    A|----5-5----55-----55----55----|
    E|--------5------5------5-------|
    
    G|------------------------------|
    D|------------------------------|
    A|----22----22----22----22------|
    E|--3----3------3----3-----3----|
    
    G|------------------------------|
    D|------------------------------|
    A|----5-5----55-----55----55----|
    E|--------5------5------5-------|
    G|------------------------------|
    D|------------------------------|
    A|----22----22----22----22------|
    E|--3----3------3----3-----3----|
    
    
    G|--------------------------------|
    D|--------------------------------|
    A|----5-5---5-5---5---------------|
    E|--------5-----5---5-------------|
    
    G|--------------------------------|
    D|--------------------------------|
    A|----5-5---5-5---5---------------|
    E|--------5-----5---5-------------|
    
    
    G|---------------------------|
    D|---------------------------|
    A|----2-2---2-2---2----------|
    E|--------3-----3---3--------|
    
    G|--------------------------
  • +
    ¡Colabora con nosotros!
    Envíanos tu versión de esta canción

Letra de El Bote
Riff:
Hoy vine a confesar.
Decirte la verdad entre tanta ficción.
Lo hicimos sin pensar que podía fallar.
Lo que pasó, pasó.
(1):
Y el bote se volcó en nuestro océano gris.
No hay nada que decir, solo nadar.
Y todo terminó y nadie pudo elegir más que sobrevivir.
Soy yo o el mar.
O el mar...
Riff:
Cansados de evitar crecer en soledad, sufrimos la traición.
Quisimos intentar barrer y simular.
Volvimos a prisión.
(1):
Y el bote se volcó en nuestro océano gris.
No hay nada que decir, solo nadar.
Y todo terminó y nadie pudo elegir más que sobrevivir.
Soy yo o el mar.
O el mar...
heart-breaker_93@hotmail.com

Video de El Bote
[]




[El Bote chords][El Bote cifra]
© LaCuerda.net · aviso legal · privacidad · es · en · pt · contacto