Acordes de Guitarra » M »los Miserables » El Crack (Tab)

El Crack
los Miserables

Letras, Notas, Punteos, Tablaturas y Acordes de Guitarra (Tabs & Chords)

  • Letra y Acordes
    SOL                  RE                        DO                  
    Sueño de niñez convertir alguna vez un gol a estadio lleno
    SOL
    eludiendo al portero
    SOL                                RE                  DO
    En casa faltaba el pan aveces faltaba el te y nunca dejo de soñar 
                      SOL
    con algún día ser un crack
    
    MIm                  DO                  RE            SOL
    Sueños de niñez pichangas del barrio , cara sucia , sudor y barro
    MIm                  DO                  RE            SOL
    Sueños de niñez pichangas del barrio , cara sucia , sudor y barro
    
    SOL                              RE                        
    Zapatillas rotas, cara sucia y los retos de mamá 
    DO                               SOL
    pero es lindo jugar y en su mente imaginar
    SOL                              RE
    Que las calles son estadios y las balas papel picado
    
  • Letra y Acordes
    E----------------------------------------------------------| 
    B----7---7-9-10--9-7-5---5--------------5--5-7-9-7-5-4---4-| 
    G----------------------6-----6-9-6-9-6-----------------4---| 
    D----------------------------------------------------------| 
    A----------------------------------------------------------| 
    E----------------------------------------------------------| 
    
    Intro: SOL-RE-DO -RE
    
    
    SOL                  RE                        DO
    Sueño de niñez convertir alguna vez un gol a estadio lleno
    SOL
    eludiendo al portero
    SOL                                RE                  DO
    En casa faltaba el pan aveces faltaba el te y nunca dejo de soñar 
                      SOL
    con algún día ser un crack
    
    CORO: X2
    
  • Tablatura
    Notas:SOL5,RE5,DO5,SOL5.
    
    es toda la cancion igual aexepcion del coro que es:mim,Do5,Re5
    y Sol5.Se toca con ritmo de punk(tocando de abajo hacia arriba)
    
    e)-------------------------------------------
    B)-8-7-5--8-7-5--8-7-5--8-7-5--8-7-5--8-7-8-7
    G)-------------------------------------------
    D)-------------------------------------------
    A)-------------------------------------------
    E)-------------------------------------------
    
    e)-------------------------------------------
    B)-8-7-5--8-7-5--8-7-5--8-7-5--8-7-5--8-7-8-7
    G)-------------------------------------------
    D)-------------------------------------------
    A)-------------------------------------------
    E)-------------------------------------------
    
    e)-8-7-5--8-7-5--8-7-5--8-7-5--8-7-5--8-7-8-7
    
  • Tablatura
    SOL      RE     DO     MIm
    E)-3--|  E)-5-|  E)-3-|  E)-7-|
    B)-3--|  B)-7-|  B)-5-|  B)-8-|
    G)-4--|  G)-7-|  G)-5-|  G)-9-|
    D)-5--|  D)-7-|  D)-5-|  D)-9-|
    A)-5--|  A)-5-|  A)-3-|  A)-7-|
    E)-3--|  E)---|  E)---|  E)---|
    
    INTRO:
    SOL     -](Mantener con Rasgueo hacia abajo y cancelarlo hacia arriba)
    
    e)-3-X--|
    B)-3-X--|
    G)-4-X--| [- 8 Veces
    D)-5-X--|    Deben hacerlo rápido.. Guíense con la canción :D)
    A)-5-X--|
    E)-3-X--|
    
    Todos los Acordes deben cancelarlos con un rasgueo hacia arriba :)
    
    
  • Tab p/Bajo
    Espere que les guste, dentro de un tiempo are un tutorial de esta cancion
    mi canal: https://www.youtube.com/channel/UCxJQLr66cEClPwJEom2ucyQ
    
    
    G---------------------------
    D---------------------------
    A------22---5------22--5----
    E---33----------33----------
    
            Estrofa
    
    Sueños de niñes
    G---------------------------
    D---------------------------
    A------22----5-----22--5----
    E---33----------33----------
    
    Convertir alguna vez
    G---------------------------
    D----44----7------44-----7--
    A-55----------55------------
    E---------------------------
    
    Un gol a estadio lleno
    G---------------------------
    D--------22----5------22---5
    A---33------------33--------
    E---------------------------
    
    Eludiendo al portero
    G---------------------------
    D---------------------------
    A------22----5-----22--5----
    E---33----------33----------
    
    En casa faltaba el pan
    G---------------------------
    D---------------------------
    A------22----5-----22--5----
    E---33----------33----------
    
    Aveces faltaba el te
    G----------
  • +
    ¡Colabora con nosotros!
    Envíanos tu versión de esta canción

Letra de El Crack
Sueño de niñez convertir alguna vez un gol a estadio lleno
eludiendo al portero
En casa faltaba el pan aveces faltaba el te y nunca dejo de soñar
con algún día ser un crack
Sueños de niñez pichangas del barrio , cara sucia , sudor y barro
Sueños de niñez pichangas del barrio , cara sucia , sudor y barro
Zapatillas rotas, cara sucia y los retos de mamá
pero es lindo jugar y en su mente imaginar
Que las calles son estadios y las balas papel picado
las sirenas eran cantos y un gol ahogaba el llanto
Juegos de niñez pichangas del barrio , cara sucia , sudor y barro
Juegos de niñez pichangas del barrio , cara sucia , sudor y barro
Sueños de niñez convertirle alguna vez un gran gol a la vida
y encontrar una Salida
Tan solo una ilusión al destino doblego y los sueños de un niño
que en crack se convirtió
Sueños de niñez pichangas del barrio , cara sucia , sudor y barro
Sueños de niñez pichangas del barrio , cara sucia , sudor y barro



© LaCuerda.net · Aviso Legal · Privacidad