Tab p/Bajo de Miel San Marcos: Cuando Pienso
Luis Morales jr
Digno es el [2004]
Miel San Marcos

Cuando Pienso

Bassline

x = Palm Mute - Nota Apagada
/ = Slide

Es Bastante Facil
Ya Que Es Casi La Misma Secuencia
De Notas Y Tonos

G|-------------------------------------------|
D|-------------------------------------------|
A|---3x--3x--3x--3x--3x--3x--3x--3x--3x--3x--| x3
E|-------------------------------------------|

G|-------------------------------------------|        )
D|-------------------------------------------|        )
A|---3x------1/-------3x---------------------| x2     )
E|-------------------------------------------|        )
                                                      )
G|-------------------------------------|              )
D|-------------------------------------|              )
A|---1x--1x--1x--1x--1x--1x--1x--1x----| x1           )
E|-------------------------------------|              )
                                                      )
G|-----------------------------------|                )
D|-----------------------0---1---0---|                )  x4
A|--3---0-------0----3---------------| x2             )
E|----------3------------------------|                )
                                                      )
G|-------------------------------------|              )
D|-------------------------------------|              )
A|---1x--1x--1x--1x--1x--1x--1x--1x----| x1           )
E|-------------------------------------|              )
                                                      )
G|-----------------------------------|                )
D|-----------------------0---1---0---|                )
A|--3---0-------0----3---------------| x2             )
E|----------3------------------------|                )

G|-----------------------------------|
D|-----------------------0---1---0---|
A|--3---0-------0----3---------------| x4
E|----------3------------------------|

G|-------------------------------------|
D|-------------------------------------|
A|---1x--1x--1x--1x--1x--1x--1x--1x----| x1
E|-------------------------------------|

G|-----------------------------------|
D|-----------------------0---1---0---|
A|--3---0-------0----3---------------| x2
E|----------3------------------------|

G|-------------------------------------|
D|-------------------------------------|
A|---1x--1x--1x--1x--1x--1x--1x--1x----| x1
E|-------------------------------------|

G|-----------------------------------|
D|-----------------------0---1---0---|
A|--3---0-------0----3---------------| x6
E|----------3------------------------|

G|-------------------------------------|
D|-------------------------------------|
A|---1x--1x--1x--1x--1x--1x--1x--1x----| x1
E|-------------------------------------|      Repetir
                                              Cuantas Veces
                                              Sea Necesario
O Hacerlo Asi:

G|--------------------------------|
D|--------------------------------|
A|---3---------------5---6---5----|
E|-------5---3---5----------------|


G|-------------------------------------|
D|-------------------------------------|
A|-------------------------------------|
E|---6x--6x--6x--6x--6x--6x--6x--6x----|

End
Este fichero es trabajo propio de su transcriptor y representa su interpretación personal de la canción. El material contenido en esta página es
para exclusivo uso privado, por lo que se prohibe su reproducción o retransmisión, así como su uso para fines comerciales.


Otras canciones del Artista

© LaCuerda.net · Aviso Legal · Privacidad