Acordes de Guitarra » M »Mercedes Ferrer » Adiós (Tab)
  • Tab p/Bajo
    Se empieza con 12 compases en silencio
    
    G :| ----------------|---------------- ||| ----------------|
    D :|*----------------|----------------*|||*4---2-----------|
    A :|*4-----4-3-------|------------2---*|||*--------5---4---|
    E :| ----------------|5---4---3------- ||| ----------------|
                        5x                                    4x
    G :---------------- ||| ----------------|---------------- |||
    D :----------------*|||*----------------|----------------*|||
    A :----------------*|||*4-----4-3-------|------------2---*|||
    E :3-3-5---0------- ||| ----------------|5---4---3------- |||
    
    G :| ----------------|---------------- ||| ----------------|
    D :|*4-------2-------|----------------*|||*4---2-----------|
    A :|*----------------|5---------------*|||* -------5---4---|
    E :| ----------------|--------3-3-5--- ||| ----------------|
    
    G :---------------- ||| ----------------|---------------- |||
    D :----------------*|||*----------------|----------------*|||
    A :---------------
  • +
    ¡Colabora con nosotros!
    Envíanos tu versión de esta canción



Video de Adiós
[]



© LaCuerda.net · aviso legal · privacidad · contacto
DINAMICO