Acordes de Guitarra » M »Melendi » El informe del forense (Tab)

El informe del forense
Melendi

Letras, Acordes y Tabs para Guitarra, Bajo y Ukulele

  •                           G                A              F#           
    |---------------|-----------------|----------------|------------------2----------
    |-------3---3---|-------0-----0---|------2-----2---|-------2-----2------2--------
    |-----0--0----0-|-----0---0-----0-|----2---2----2--|-----3---3----3-------3------
    |---4-----4-----|---0------0------|--2-------2-----|---4-------4------------4----
    |-2-------------|-2---------------|-0--------------|-4------------------------4--
    |---------------|-----------------|----------------|----------------------------2
    
    
    Ella lucho con toda su fuerza,    |
    pero mas lucho aquel cafre         | introduccion
    pa abrirle las piernas.           |
    
    SIm                           SOL
    Ella creyo, que nada era cierto
                      SIm
    que todo era un engaño
                              LA      FA#  
    que aquello era un infierno,
    
    
  • Bm                        G
    Ella lucho con toda su fuerza,    |
          A
    pero mas lucho aquel cafre         | introducción
                     F#m
    pa abrirle las piernas.           |
    
    Bm                           G
    Ella creyo, que nada era cierto
                      Bm
    que todo era un engaño
                              A      F#m
    que aquello era un infierno,
    
                         G
    Y aquel hombre el diablo
                     A
    vestío de sufrimiento
                     F#m
    ay empapao en descaro
    
  •         Bm                G                A                F#
    |---------------|-----------------|----------------|---------------------------
    |-------3---3---|-------0-----0---|------0-----0---|-------0-----0-------------
    |-----0--0----0-|-----0---0-----0-|----2---2----2--|------------------3--------
    |---4-----4-----|---0------0------|--2-------2-----|-----2---2-----2--4--------
    |-2-------------|-----------------|-0--------------|---4-------4------4--------
    |---------------|-3---------------|----------------|-2----------------2--------
    
    
    Ella lucho con toda su fuerza,    |
    pero mas lucho aquel cafre         | introduccion
    pa abrirle las piernas.           |
    
    SIm                           SOL
    Ella creyo, que nada era cierto
                      SIm
    que todo era un engaño
                              LA      FA#
    que aquello era un infierno,
    
    
  • +
    ¡Colabora con nosotros!
    Envíanos tu versión de esta canción

Letra de El informe del forense
Ella lucho con toda su fuerza, |
pero mas lucho aquel cafre | introduccion
pa abrirle las piernas. |
Ella creyo, que nada era cierto
que todo era un engaño
que aquello era un infierno,
Y aquel hombre el diablo
vestío de sufrimiento
ay empapao en descaro
complice del silencio
La enterraron en vida!!!
en aquel puto antro
y lavó sus heridas
en su propio llanto.
Estribillo:
Y el informe del forense
dice que no hay violación
que no hay prueba de que aquel hombre
le bajara el pantalón
Y el secreto de sumario
ya cerró la investigación
porque encontraron pinchazos
en el brazo ooh! ooh!
y el caballo la mato, |
El confeso que lo habia hecho |
Y basaba su triste defensa: | introducción
que estaba muy puesto. |
Vera señor juez: si no hubo ensañamiento
la mate en el momento
en que desgarraba,
su piel con mis dedos
su alma con mi miedo
si en la misma luna
se oian sus lamentos
Yo no pude hacer nada!!
si ella lo iba pidiendo
y si en algo me ayuda
dire que lo siento.
ESTRIBILLO
Y el caballo la mato
Y el caballo la mato
Y el caballo la mato x2
Y el caballo la mato
Ooooooh!!!




[El informe del forense chords][El informe del forense cifra]
© LaCuerda.net · aviso legal · privacidad · es · en · pt · contacto